Guitar Tabs
song title    band name

Join Us Today!

Don't strum alone...
be a part of the largest online Christian music community. Browse thousands of guitar tabs and chat w/ musicians like yourself.


It's Free!

Relient K - Trademark

This tab has been rated a 0.50 out of 5 for accuracy. (4 votes)Sorry, but you must be logged in to rate this tab.
Click here to log-in, or you can click here to register.
(Registration is free)

All songs owned by corresponding publishing company. If you make copies of any song on this website, be sure to report your usage to CCLI.
****
Album: Employee of the month
Trademark: Writen by Matt T.
Copyright by Gotee Records.
****
Tabbed by Andy (AKA The 14 Teen)
Contact: Cybernetic2000@AOL.com
Tab:Trademark-Intro
****

Play the intro with lots of treble,  medium amount of bass, with
distortion. If you have a reverb pedal/effect, it works great for
this tune.

E-Not used
B-Not used
G--------------3--3--5----------3--3--5-------------3--3--2-----------3--3--2
D----5--5--5----------5--5--5----------5--5--5------------5--5--5------------
A----5--5--5----------5--5--5----------5--5--5------------5--5--5------------
E----3--3--3----------3--3--3----------3--3--3------------3--3--3------------

(REPEAT X4) NOTE: On the third time through, turn on your reverb
effects to sound more like the guitar for the 2 last times through
the intro) ENJOY!

Comments about this tab

guitarequalsjoy - 2005-12-27

ummmm.....

e|---------------------------------------------|
B|---------------------------------------------|
G|-2-2--55-77-2-2--55-77------55-44------55-74-|
D|-2-2--------2-2--------2-2--------2-2--------|
A|-0-0--------2-2--------2-2--------2-2--------|
E|------------0-0--------0-0--------0-0--------|


bronxbomber - 2006-06-15

actually, this song is in drop D


Add a comment/correction

Complimentary Christian Ringtones
Dadamobile and CGR have teamed up to bring your favorite Christian artists right to your phone. Sign up today and get 10 complementary ringtones!
Tab Country
Did you know CGR has a sister site w/ country guitar tabs? Well we do! Its called Tab Country. It has a great archive with a lot of country tabs.
Rockin Tabs
Are you looking for a site that has rock guitar tabs? Then Rockintabs.com is the place for you. It is a budding site with many rock guitar tabs. Submit your tab today.
Tab Gallery
Tab Gallery has a compilation of christian, rock, and country tabs all in one place. Come visit us.