Guitar Tabs
song title    band name

Join Us Today!

Don't strum alone...
be a part of the largest online Christian music community. Browse thousands of guitar tabs and chat w/ musicians like yourself.


It's Free!

Five Iron Frenzy - Kamikaze

This tab has been rated a 4.50 out of 5 for accuracy. (2 votes)Sorry, but you must be logged in to rate this tab.
Click here to log-in, or you can click here to register.
(Registration is free)

All songs owned by corresponding publishing company. If you make copies of any song on this website, be sure to report your usage to CCLI.
Artist: Five Iron Frenzy
Song: Kamikaze (Lead guitar)
Album: Unreleased(will possibly be on Cheeses of Nazareth)
Tabbed by: Kris Kircher (soundboardfrenzy@HotPOP.com)

Took me a while to do this one, but it was worth it.  such a great song.  such
a shame it didn't make the album.  I put in some general timecodes to try and
keep yourselves on track.  hope you all have fun playing this song.  if u have
any questions, feel free to e-mail me.

Intro (00:00) + (00:10)
|-------------------------------||----------------------------|
|-------------------------------||----------------------------|
|o------------------------------||----------------------------|
|o------------------------------||---------------------7h9-7--|
|--(10)(10)-10-7--9-5/7---------||--(10)(10) 10-7-9-5---------|
|-----------------------7/10\7--||----------------------------|
if in (), put finger @ that fret, but don't apply pressure.

(00:05) + (00:15)
|-------------------------------||--------------------------------|
|-------------------------------||--------------------------------|
|-------------------------------||-------------------------------o|
|-------------------------------||--------7-7/9-9-7--------------o|
|--(10)(10)-10-7--9-5/7---------||--10-10-----------10-9-7----7---|
|-----------------------7/10\7--||-------------------------10-----|repeat 2x

(00:20)
|---------------------||-------------------|
|---------------------||-------------------|
|o--4-4-4-4-7-7-7-6--o||--5-5-5-5-4-4-4-2--|
|o-------------------o||-------------------|
|---2-2-2-2-5-5-5-4---||--3-3-3-3-2-2-2-0--|
|------repeat-3x------||-------------------|

Verse 1 (00:29)
|------------------------||-------------------------|
|------------------------||-------------------------|
|o--9-9-9-9-9-9-9-7-6-6--||--9-9-9-9-9-9-9-11-7-6--o|
|o-----------------------||------------------------o|
|---7-7-7-7-7-7-7-5-4-4--||--7-7-7-7-7-7-7-09-5-4---|
|--------------------repeat-2x----------------------|

(00:41)
|------------------------------||-------------------------------|
|------------------------------||-------------------------------|
|--12-12-12-12-11-11-11-9-7-9--||--12-12-12-12-11-11-11-13-7-9--|
|------------------------------||-------------------------------|
|--10-10-10-10-09-09-09-7-5-7--||--10-10-10-10-09-09-09-12-5-7--|
|------------------------------||-------------------------------|

(00:46)
|-----------------------||------------------------|
|-----------------------||------------------------|
|--9-9-9-9-9-9-9-7-6-6--||--9-9-9-9-9-9-9-11-7-6--|
|-----------------------||------------------------|
|--7-7-7-7-7-7-7-5-4-4--||--7-7-7-7-7-7-7-09-5-4--|
|-----------------------||------------------------|

(00:51)
|-----------------------------------------|
|-----------------------------------------|
|o---------------------------------------o|
|o--7-7-7-7-7-7-7-7-7-7------------------o|
|---5-5-5-5-5-5-5-5-5-5---5-5-5-5-5-5-7---|
|-------------------------3-3-3-3-3-3-5---|repeat 2x

(01:02)
|-------------------------------------------|
|-------------------------------------------|
|o-----------------------------------------o|
|o--7-7-7-7-7-7-7-7-7-7--------------------o|
|---5-5-5-5-5-5-5-5-5-5---5-5-9-9-2---5-7---|
|-------------------------3-3-7-7-0---3-5---|

Chorus (01:10) + (01:20)
|-------------------------------||----------------------------|
|-------------------------------||----------------------------|
|o------------------------------||----------------------------|
|o------------------------------||---------------------7h9-7--|
|--(10)(10)-10-7--9-5/7---------||--(10)(10) 10-7-9-5---------|
|-----------------------7/10\7--||----------------------------|
if in (), put finger @ that fret, but don't apply pressure.

(01:15) + (01:25)
|-------------------------------||--------------------------------|
|-------------------------------||--------------------------------|
|-------------------------------||-------------------------------o|
|-------------------------------||--------7-7/9-9-7--------------o|
|--(10)(10)-10-7--9-5/7---------||--10-10-----------10-9-7----7---|
|-----------------------7/10\7--||-------------------------10-----|repeat 2x

(01:31)
|--------------------||-----------------------|
|--------------------||-----------------------|
|o--4-4-4-4-7-7-7-6--||-----------------------|
|o-------------------||-----------------------|
|---2-2-2-2-5-5-5-4--||--3---2---1---0--------|
|------repeat-3x-----||----4---3---2---1---0--|

Verse 2
Chorus

Comments about this tab

No comments/corrections found. Add your own

Complimentary Christian Ringtones
Dadamobile and CGR have teamed up to bring your favorite Christian artists right to your phone. Sign up today and get 10 complementary ringtones!
Tab Country
Did you know CGR has a sister site w/ country guitar tabs? Well we do! Its called Tab Country. It has a great archive with a lot of country tabs.
Rockin Tabs
Are you looking for a site that has rock guitar tabs? Then Rockintabs.com is the place for you. It is a budding site with many rock guitar tabs. Submit your tab today.
Tab Gallery
Tab Gallery has a compilation of christian, rock, and country tabs all in one place. Come visit us.