Guitar Tabs
song title    band name

Join Us Today!

Don't strum alone...
be a part of the largest online Christian music community. Browse thousands of guitar tabs and chat w/ musicians like yourself.


It's Free!

Franklin, Kirk - Now Behold The Lamb

This tab has been rated a 5.00 out of 5 for accuracy. (3 votes)Sorry, but you must be logged in to rate this tab.
Click here to log-in, or you can click here to register.
(Registration is free)

All songs owned by corresponding publishing company. If you make copies of any song on this website, be sure to report your usage to CCLI.
#----------------------------------PLEASE NOTE---------------------------------#
#This file is the author's own work and represents their interpretation of the #
#song. You may only use this file for private study, scholarship, or research. #
#------------------------------------------------------------------------------#

NOW BEHOLD THE LAMB
As recorded by Kirk Franklin



Transcribed by Ray Johnson

 Words and Music by KFranklin

 

Gtr I (E A D G B E) - 'Soprano'


  Q=45
 4/4
  Gtr I
  W          E S S +E  S S +Q   +S  +S  S S
|----------|-6------------------------------|
|----------|-6-6-6-(6)-6-6-(6)--(6)-------6-|
|----------|-7-7-5-(5)-5-5-(5)--(5)-(5)---7-|
|----------|---8-8-(8)-8-7-(7)--(7)-(7)---8-|
|----------|--------------------------------|
|----------|--------------------------------|


  S +S  S S +S  +S  S S +Q.   +S  S
|-6----------------------------------|
|-6-(6)-6-6-(6)-(6)-6-6-(6)----------|
|-7-(7)-7-5-(5)-(5)-5-5-(5)---(5)----|
|-------8-8-(8)-----8-7-(7)---(7)----|
|------------------------------------|
|------------------------------------|


  S S S S +S  S S S +S  S S S +E  +S  S   S +S  S S +S  +S  S S +Q   +E  +S  S
|-6-----------------------1-3-(3)-------|-------3-1-(1)-----1-1-(1)--(1)-(1)---|
|-6-6-6-6-----6-6-6-(6)-3-1-3-(3)-(3)-3-|-4-----3-1-(1)-(1)-3-3-(3)------------|
|-7-7-7-5-(5)-5-5-5-(5)-3-2-3-(3)-(3)-2-|-3-(3)-3-2-(2)-(2)-3-3-(3)--(3)-------|
|---8-8-8-(8)-8-8-7-(7)-5-------------3-|-5-(5)--------------------------------|
|---------------------------------------|--------------------------------------|
|---------------------------------------|--------------------------------------|


  S +S  S S +S  +S  S S +Q.   S S   S +S  S S +E  S S +Q.   S S
|-6-(6)---------------------------|-6---------------------------|
|-6-(6)-6-6-(6)-----6-6-(6)-----6-|-6-(6)-6-6-(6)-6-6-(6)-----6-|
|-7-----7-5-(5)-(5)-5-5-(5)-----7-|-7-----7-5-(5)-5-5-(5)-----7-|
|-------8-8-(8)-(8)-8-7-(7)-------|-------8-8-(8)-8-7-(7)-----8-|
|---------------------------------|-----------------------------|
|---------------------------------|-----------------------------|


  S S S S +S  S S S +S  S S S +S  +E  S
|-6-----------------------1-3-(3)-(3)---|
|-6-6-6-6-(6)-6-6-6-(6)-3-1-3-(3)-(3)-3-|
|-7-7-7-5-(5)-5-5-5-(5)-3-2-4-(4)-----2-|
|---8-8-7-----7-7-7-(7)-5---------------|
|---------------------------------------|
|---------------------------------------|


  S +S  S S +S  +S  S S +Q   +S  +S  +S  S
|-------3-1-(1)-----1-1-(1)--(1)-----------|
|-4-(4)-3-1-(1)-(1)-3-3-(3)--(3)-(3)-(3)---|
|-3-(0)-3-2-(2)-(2)-3-3-(3)--(3)-(3)-------|
|-5----------------------------------------|
|------------------------------------------|
|------------------------------------------|


  S S  S  S  +S  +S   S S +Q.   S  S
|-8----------------------------------|
|-8----8--8--(8)-(8)--8-8-(8)------8-|
|-9----9--7--(7)-(7)--7-7-(7)------9-|
|-----10-10-(10)-----10-9-(9)-----10-|
|------------------------------------|
|------------------------------------|


  S S  S  S  +S  +S   S S +Q   +S  +S  +S   S
|-8-------------------------------------------|
|-8----8--8--(8)-(8)--8-8-(8)--(8)-(8)------8-|
|-9----9--7--(7)------7-7-(7)--(7)-(7)-(7)--9-|
|-----10-10-(10)-----10-9-(9)--(9)---------10-|
|---------------------------------------------|
|---------------------------------------------|


  S  S  S S +S  S S S +S  S S S +E. S
|-8-------------------------3-5-(5)---|
|-8--8--8-8-----8-8-8-(8)-5-3-5-(5)-5-|
|-9--9--9-7-(7)-7-7-7-(7)-5-4-6-(6)-6-|
|---10-10-9-----9-9-9-(9)-7---------7-|
|-------------------------------------|
|-------------------------------------|


  S +S  S S +S  +S  S S +E  +S  S E. +S     Q   E. +S   E.  +S  Q
|-------5-3-(3)-(3)-3-3-(3)-------8------|--8---8------10--(10)-7--|
|-6-----5-3-(3)-(3)-5-5-(5)-(5)---8--(8)-|-10--10--(6)-12---(8)-8--|
|-5-(5)-5-4-(4)-----5-5-(5)-(5)---9--(9)-|-10--10------12-------7--|
|-7--------------------------------------|-------------------------|
|----------------------------------------|-------------------------|
|----------------------------------------|-------------------------|


  H    +Q   E. +S     Q   E. +S   Q   E  +S  S
|-8----(8)--8------|--8---8--(8)-10------------|
|-8----(8)--8------|-10--10------12--12--------|
|-9----(9)--9--(9)-|-10--10------12--12-(12)---|
|------------------|-----------------12-(12)---|
|------------------|---------------------------|
|------------------|---------------------------|


   Q   +S   +S   +S   S  S  S  S  S  +S   S  S  S
|-------------------------------------------------|
|-13--(13)--------------13------------------------|
|-12--(12)-(12)------12-12-12-12-12-(12)-12-12-12-|
|-14--(14)-(14)-(14)-14-14-14-14-12-(12)-12-12-12-|
|--------------------15----15-15-15-(15)-15-15-14-|
|-------------------------------------------------|


   +S   S  S  S  +E.  S  E  S  S  +S   +S   S S    Q   +S   +E  S H
|-----------------------------------------------|----------------------*|
|-----------------------------------------------|----------------------*|
|-(12)----12-14-(14)-------14-12-(12)------12---|-12--(12)-(12)--------*|
|-(12)-14-12-14-(14)-14-15-14-12-(12)-(12)-14---|-14--(14)-(14)--------*|
|-(14)-15-14-16-(16)-14-15-15-14-(14)-(14)-15---|-15--(15)-------------*|
|------17------------15-17----------------------|----------------------*|




--------------------------------------------------------------------------------


Duration Legend
---------------
W - whole; H - half; Q - quarter; E - 8th; S - 16th; T - 32nd; X - 64th; a - acciaccatura
+ - note tied to previous; . - note dotted; .. - note double dotted
Uncapitalized letters represent notes that are staccato (1/2 duration)
Irregular groupings are notated above the duration line
Duration letters will always appear directly above the note/fret number it represents the
duration for.  Duration letters with no fret number below them represent rests.  Multi-
bar rests are notated in the form Wxn, where n is the number of bars to rest for.  Low
melody durations appear below the staff

Tablature Legend
----------------
 h   - hammer-on
 p   - pull-off
 b   - bend
 pb  - pre-bend
 r   - bend release (if no number after the r, then release immediately)
 /\  - slide into or out of (from/to "nowhere")
 s   - legato slide
 S   - shift slide
 - natural harmonic
[n]  - artificial harmonic
n(n) - tapped harmonic
 ~   - vibrato
 tr  - trill
 T   - tap
 TP  - trem. picking
 PM  - palm muting
\n/  - tremolo bar dip; n = amount to dip
 \n  - tremolo bar down
 n/  - tremolo bar up
/n\  - tremolo bar inverted dip
 =   - hold bend; also acts as connecting device for hammers/pulls
 <> - volume swell (louder/softer)
 x   - on rhythm slash represents muted slash
 o   - on rhythm slash represents single note slash

Misc Legend
-----------
 |  - bar
||  - double bar
||o - repeat start
o|| - repeat end
*|  - double bar (ending)
 :  - bar (freetime)
 $  - Segno
 &  - Coda
Tempo markers -  = BPM(8/16=s8/s16), where s8 = swing 8ths, s16 = swing 16ths



--------------------------------------------------------------------------------

** Generated using Power Tab Editor by Brad Larsen: The Official Power Tab Web Site

Comments about this tab

No comments/corrections found. Add your own

Complimentary Christian Ringtones
Dadamobile and CGR have teamed up to bring your favorite Christian artists right to your phone. Sign up today and get 10 complementary ringtones!
Tab Country
Did you know CGR has a sister site w/ country guitar tabs? Well we do! Its called Tab Country. It has a great archive with a lot of country tabs.
Rockin Tabs
Are you looking for a site that has rock guitar tabs? Then Rockintabs.com is the place for you. It is a budding site with many rock guitar tabs. Submit your tab today.
Tab Gallery
Tab Gallery has a compilation of christian, rock, and country tabs all in one place. Come visit us.