Guitar Tabs
song title    band name

Join Us Today!

Don't strum alone...
be a part of the largest online Christian music community. Browse thousands of guitar tabs and chat w/ musicians like yourself.


It's Free!

DC Talk - Between You and Me

This tab has been rated a 5.00 out of 5 for accuracy. (1 vote)Sorry, but you must be logged in to rate this tab.
Click here to log-in, or you can click here to register.
(Registration is free)

All songs owned by corresponding publishing company. If you make copies of any song on this website, be sure to report your usage to CCLI.
Author/Artist: DC Talk
Title: Between You and Me
Transcribed by: Virgel Stigall
Email: vstigall@veracom.net

I don't know the exact names of all of the chords.  However, I think you'll
like the way they sound.

One more hint:  You'll have to use the "Hendrix" thumb to cover the bass
string on the F chord.

----------3--2---3--1---------------------------------------------------------
----------3--3---3--1---------------------------------------------------------
----------0--0---0--0---------------------------------------------------------
----------0--2---5--3---------------------------------------------------------
----------2--2---6--3---------------------------------------------------------
----------3--0---x--1---------------------------------------------------------
 Intro:   G  Em  Eb F                                                         

----------0--2----0---0--------------------0--x-------------------------------
----------0--3----0---1--------------------1--4-------------------------------
----------1--2----2---0--------------------0--3-------------------------------
----------2--4----2---3--------------------2--2-------------------------------
----------2--2----0---0--------------------3--3-------------------------------
----------0--2----x---x--------------------3--x-------------------------------
 Verses:  E  Bm7  A2  Am7 (3 times) Then:  C  C7                              

-------------------------------------------3--3--1----------------------------
-------------------------------------------3--3--1----------------------------
-------------------------------------------0--0--0----------------------------
-------------------------------------------0--2--3----------------------------
-------------------------------------------2--3--3----------------------------
-------------------------------------------3--x--1----------------------------
 Chorus:  Same as Intro (2 times)  Then:   G  C  F                            

--------3---------------------------------------------------------------------
--------3---------------------------------------------------------------------
--------3---------------------------------------------------------------------
--------5---------------------------------------------------------------------
--------x---------------------------------------------------------------------
--------x---------------------------------------------------------------------
 Diddy: Strum this while the bass player moves thru the progression           

Comments about this tab

Asa Gaston - 2006-06-14

sounds right to me bro


Add a comment/correction

Complimentary Christian Ringtones
Dadamobile and CGR have teamed up to bring your favorite Christian artists right to your phone. Sign up today and get 10 complementary ringtones!
Tab Country
Did you know CGR has a sister site w/ country guitar tabs? Well we do! Its called Tab Country. It has a great archive with a lot of country tabs.
Rockin Tabs
Are you looking for a site that has rock guitar tabs? Then Rockintabs.com is the place for you. It is a budding site with many rock guitar tabs. Submit your tab today.
Tab Gallery
Tab Gallery has a compilation of christian, rock, and country tabs all in one place. Come visit us.