Guitar Tabs
song title    band name

Join Us Today!

Don't strum alone...
be a part of the largest online Christian music community. Browse thousands of guitar tabs and chat w/ musicians like yourself.


It's Free!

eLi - King Of The Hill

This tab has not yet been rated for accuracy.Sorry, but you must be logged in to rate this tab.
Click here to log-in, or you can click here to register.
(Registration is free)

All songs owned by corresponding publishing company. If you make copies of any song on this website, be sure to report your usage to CCLI.
Song:King of the Hill by Eli

The last two versions of King of the Hill was very well tabbed, But I found
it difficult to follow as I played along with the CD and there were too many
riffs to remember.

However I did figured out an easier way to play the song which sounds
very close to the CD and can be played along with the music easier.

Riff 1,Intro, verse, chorus:

e---- 0---------0-----------0------
B--------0---------0------------0--
G-------6---------6----------------
D---6---------6---------6h7---6---6
A--4---------0---------------------
E----------------------0-----------

Riff 2, for the end of each paragraph for the verses:

e-----0---------0------------0----
B--------0---------0--------------
G-------6---------6------------9--
D---6---------6----------6h7---9--
A--4---------------------------7--
E------------7---------0-------0--

Riff 3, for the bridge part in the middle of verse 2:

e-----0---------0---------0------0--------0---------0-----
B--------0---------0---------0-4---4---------0---------0--
G-------6---------6---------6-------4-------6---------6---
D---6---------6---------6---------------6---------6-------
A--4---------4--------------------------------------------
E----------------------7---------------5---------7--------

After you play Riff 3 go directly back to riff 1

Listen to the CD carefully and you'll understand when to play these riffs.
End the song with this strum: 
e-x
B-x
G-9
D-9
A-7
E-0

mostly your left hand will be in this easy position for most of the time:
e-
B-
G-6
D-6
A-4
E-
If you have any questions you can e-mail me at breadandjelly@hotmail.com
Have fun playing Christian music and praising our Lord!

Comments about this tab

No comments/corrections found. Add your own

Complimentary Christian Ringtones
Dadamobile and CGR have teamed up to bring your favorite Christian artists right to your phone. Sign up today and get 10 complementary ringtones!
Tab Country
Did you know CGR has a sister site w/ country guitar tabs? Well we do! Its called Tab Country. It has a great archive with a lot of country tabs.
Rockin Tabs
Are you looking for a site that has rock guitar tabs? Then Rockintabs.com is the place for you. It is a budding site with many rock guitar tabs. Submit your tab today.
Tab Gallery
Tab Gallery has a compilation of christian, rock, and country tabs all in one place. Come visit us.