Guitar Tabs
song title    band name

Join Us Today!

Don't strum alone...
be a part of the largest online Christian music community. Browse thousands of guitar tabs and chat w/ musicians like yourself.


It's Free!

This tab has been rated a 4.00 out of 5 for accuracy. (2 votes)Sorry, but you must be logged in to rate this tab.
Click here to log-in, or you can click here to register.
(Registration is free)

All songs owned by corresponding publishing company. If you make copies of any song on this website, be sure to report your usage to CCLI.
Child of Love
Sara Groves (City on a Hill: It's Christmas Time)


Bm Riff:
	|-----------------------------|
	|------3--------3--------3----|
	|--------4--------4--------4--|
	|----4--------4--------4------|
	|--2--------0-----------------|
	|--------------------3--------|


Intro:
	Bm Riff 3x plus a little echo on the last two notes at the end.

Verse:

		|--------------------------------3p2---------
		|-----3----------2-------3-----3-----3---3---
	Riff +	|-------4--------------2-----2---------2-----
		|---4----------2-----2-----0-----------------
		|------------2-----0-------------------------
		|-3--------0---------------------------------
			   Em	   A	   D

		|--------------------------------2h3p2-------
		|-----3----------2-------3-----3-------3---3-
	Riff +	|-------4--------------2-----2-----------2---
		|---4----------2-----2-----0-----------------
		|------------2-----0-------------------------
		|-3--------0---------------------------------
			   Em	   A	   D

		|--------------------------------0-----------
		|-----3----------2-------3-----3------3---3--
	Riff +	|-------4--------------2-----2----------2----
		|---4----------2-----2-----0-----------------
		|------------2-----0-------------------------
		|-3--------0---------------------------------
			   Em	   A	   D

		|----------------3-----------------3---------
		|-----3-------------0---0------------0---0---
	Riff +	|-------4-------------0---0------0-----0---0-
		|---4----------2---------------2-------------
		|------------2---------------2---------------
		|-3--------0---------------------------------
			   Em

	|-------3--------------------------------0-----------
	|---------2---2-----------2-----2h3----3-------------
	|-----------0---0h2-----2---2--------2---------------
	|-----0---------------2-------2----0-----------------
	|---2---------------0--------------------------------
	|-3--------------------------------------------------
	  G		    A		   D
					   ^
	This is the first D of the chorus--|


Chorus (Pick in the same pattern as the last line of the verse):
	D G A G
	D G A G
	D G
	On the last syllable of "mankind," play


		|----------------3-----------------3---------
		|-----3-------------0---0h2------------2h3---
	Riff +	|-------4-------------0----------2---2-------
		|---4----------2---------------2-------------
		|------------2---------------0---------------
		|-3--------0---------------------------------
			   Em


Riff 3x between the chorus and verse.

Questions? mr112482@yahoo.com
Copyright 2002 INO Music

Comments about this tab

ABCDEFGHIJKLMNO - 2004-12-21

........


Blazer77 - 2005-12-15

Could anyone verify the accuracy of this tab...it seems very close but if anyone has any other pointers, it would be much appreciated.


dfinch - 2006-04-11

Does anyone have the chords for Add to the Beauty?


Add a comment/correction

Complimentary Christian Ringtones
Dadamobile and CGR have teamed up to bring your favorite Christian artists right to your phone. Sign up today and get 10 complementary ringtones!
Tab Country
Did you know CGR has a sister site w/ country guitar tabs? Well we do! Its called Tab Country. It has a great archive with a lot of country tabs.
Rockin Tabs
Are you looking for a site that has rock guitar tabs? Then Rockintabs.com is the place for you. It is a budding site with many rock guitar tabs. Submit your tab today.
Tab Gallery
Tab Gallery has a compilation of christian, rock, and country tabs all in one place. Come visit us.