Guitar Tabs
song title    band name

Join Us Today!

Don't strum alone...
be a part of the largest online Christian music community. Browse thousands of guitar tabs and chat w/ musicians like yourself.


It's Free!

Demon Hunter - Through The Black

This tab has been rated a 4.33 out of 5 for accuracy. (3 votes)Sorry, but you must be logged in to rate this tab.
Click here to log-in, or you can click here to register.
(Registration is free)

All songs owned by corresponding publishing company. If you make copies of any song on this website, be sure to report your usage to CCLI.
Author/Artist: Demon Hunter
Title: Through The Black
Album: Demon Hunter
Transcribed by: James Dean
Email: RacerX2000@hotmail.com

dropped C
This is the album version.
The demo version off of the Solid State 3 cd is basically the same.
cept its in dropped B


-------------------------------------------------------
-------------------------------------------------------
-------------------------------------------------------
--3p0p3p0p3p0p3h5p3-0-2-2-2-2-2-2h5p3p0----------------
--3p0p3p0p3p0p3h5p3-0-3-3-3-3-3-3h5p3p0----------------
--3p0p3p0p3p0p3h5p3-0-2-2-2-2-2-3h5p3p0----------------
  intro/ verse 2/ pre-chorus                                                  

-------------------|-----------|-----------------------
----10--10--10--10-|-----------|-----------------------
-------------------|-----------|-----------------------
--0-7-0-7-0-7-0-7--|--3h5p3b-0-|--12\0-12\0-12\0-1/12--
--0---0---0---0----|--3h5p3b-0-|--12\0-12\0-12\0-1/12--
--0---0---0---0----|--3h5p3b-0-|--12\0-12\0-12\0-1/12--
  1st verse         first breaks  ending breaks                               

--------------------
--------------------
--5-7---------------
--3-5-5/8p0-0-7p0---
--3-5-5/8p0-0-7p0---
--3-5-5/8p0-0-7p0---
     chorus                                                                   

----------------------------
----------------------------
----------------------------
--3p5h3p0h3p5h3p0--3h5p3h0--
--3p5h3p0h3p5h3p0--3h5p3h0--
--3p5h3p0h3p5h3p0--3h5p3h0--
          bridge  

 Rinse and repeat                                                            

Comments about this tab

mightyboogaloo - 2004-03-10

In the first verse it sounds better with the 6th string (dropped C) palm muted and play the harmonic on the 5th string 5th fret (unpalm muted). So this is what it looks like: *- harmonic

G ---5*---5*
C -00---00--


Add a comment/correction

Complimentary Christian Ringtones
Dadamobile and CGR have teamed up to bring your favorite Christian artists right to your phone. Sign up today and get 10 complementary ringtones!
Tab Country
Did you know CGR has a sister site w/ country guitar tabs? Well we do! Its called Tab Country. It has a great archive with a lot of country tabs.
Rockin Tabs
Are you looking for a site that has rock guitar tabs? Then Rockintabs.com is the place for you. It is a budding site with many rock guitar tabs. Submit your tab today.
Tab Gallery
Tab Gallery has a compilation of christian, rock, and country tabs all in one place. Come visit us.