Guitar Tabs
song title    band name

Join Us Today!

Don't strum alone...
be a part of the largest online Christian music community. Browse thousands of guitar tabs and chat w/ musicians like yourself.


It's Free!

Newsboys - Entertaining Angels

This tab has been rated a 3.50 out of 5 for accuracy. (2 votes)Sorry, but you must be logged in to rate this tab.
Click here to log-in, or you can click here to register.
(Registration is free)

All songs owned by corresponding publishing company. If you make copies of any song on this website, be sure to report your usage to CCLI.
Author/Artist: Newsboys
Title: Entertaining Angels
Transcribed by: .3
Album: Step Up To the Microphone
Email: r3dstar3@cs.com

There are 2 guitar parts?
Jody and Pete

J is for Jody
P is for Pete

Intro
J:
--2------7------9---11------------------
------------------------9---------------
----------------------------------------
---------------------------------------- 
----------------------------------------
---------------------------------------- 
--2------7------9---11------------------
------------------------9---------------
----------------------------------------
---------------------------------------- 
----------------------------------------
---------------------------------------- 
---------7------9---11------------------
--9----------------------9--------------
----------------------------------------
---------------------------------------- 
----------------------------------------

--2------7------9---11------------------
------------------------9---------------
----------------------------------------
---------------------------------------- 
----------------------------------------
---------------------------------------- 
P:
 --2---2---2---2---2---2---2---2---3---3---3---
----3---3---3---3---3---3---3---3---3---3---3-
----------------------------------------------
---------------------------------------------- 
----------------------------------------------
----------------------------------------------



Verse 1:

No bar chords

J&P:

A     E       G

A     E       G      A    D

Riff:
----------------------------------------
--5---3-----------------------------------
---------4-------------------------------
---------------------------------------- 
----------------------------------------
---------------------------------------- 
A     E      G

A     E      G


Chorus:

P:
--2---2---2---2---2---2---2---2---3---3---3---
----3---3---3---3---3---3---3---3---3---3---3-
----------------------------------------------
---------------------------------------------- 
----------------------------------------------
----------------------------------------------

J:

D   D/C#  B    G


Chord-----eadgbe
D          577
D/C#       477
B          244
G         320033  


P: 
-1--1---0-------------------------------
-1--1---1-------------------------------
----------------------------------------
---------------------------------------- 
----------------------------------------
---------------------------------------- 
J:
----------------------------------------
----------------------------------------
--6--6---5------------------------------
--3--3---2------------------------------ 
----------------------------------------
---------------------------------------- 

Verse 2:
A     E       G

A     E       G      A    D

Riff:
----------------------------------------
--5---3-----------------------------------
---------4-------------------------------
---------------------------------------- 
----------------------------------------
---------------------------------------- 
A     E      G

A     E      G


Chorus:
P:
--2---2---2---2---2---2---2---2---3---3---3---
----3---3---3---3---3---3---3---3---3---3---3-
----------------------------------------------
---------------------------------------------- 
----------------------------------------------
----------------------------------------------

J:

D   D/C#  B    G



Pre Bridge: 
P: 
-1--1---0----1--1---0-------------------
-1--1---1----1--1---1-------------------
----------------------------------------
---------------------------------------- 
----------------------------------------


J:
----------------------------------------
----------------------------------------
--6--6---5-----6--6---5-----------------
--3--3---2-----3--3---2-----------------
----------------------------------------
---------------------------------------- 
Bridge:

J&P:
Riff:
----------------------------------------
----------------------------------------
----------------------------------------
---------------------------------------- 
----------30-5-----------------
--3--3-5-------------------------------- 

Phil
----------------------------------------
----------------------------------------
----------------------------------------
---------------------------------------- 
----5----3------------------------------
-----5----3-----------------------------  
J&P:
Riff:
----------------------------------------
----------------------------------------
----------------------------------------
---------------------------------------- 
----------30-5-----------------
--3--3-5-------------------------------- 
Phil
----------------------------------------
----------------------------------------
----------------------------------------
---------------------------------------- 
----5----3------------------------------
-----5----3----------------------------- 
P:
Riff:
----------------------------------------
----------------------------------------
----------------------------------------
---------------------------------------- 
----------30-5-----------------
--3--3-5-------------------------------- 
J:
Solo: 
----------------------------------------
----------------------------------------
----7---7---10-7---5--7-5---------------
--------------------------5------------- 
----------------------------------------
---------------------------------------- 

P:
Riff:
----------------------------------------
----------------------------------------
----------------------------------------
---------------------------------------- 
----------30-5-----------------
--3--3-5-------------------------------- 
J:
----------------------------------------
----------------------------------------
---------5---57--7--7---10-7----5--7-5--
--5-5--7---7---------------------------5 
----------------------------------------
---------------------------------------- 
Chorus:
P:
--2---2---2---2---2---2---2---2---3---3---3---
----3---3---3---3---3---3---3---3---3---3---3-
----------------------------------------------
---------------------------------------------- 
----------------------------------------------
----------------------------------------------

J:

D   D/C#  B    G


Ending:

P: 
-1--1---0----1--1---0-----1--1---1------
-1--1---1----1--1---1-----1--1---1------
----------------------------------------
---------------------------------------- 
----------------------------------------


J:
----------------------------------------
----------------------------------------
--6--6---5-----6--6---5-----6--6---2----
--3--3---2-----3--3---2-----3--3---5----
----------------------------------------
----------------------------------------


Both End on D

Comments about this tab

Roller - 2004-12-05

it would help if you would put the words so we know were the song is at.


Kutenian - 2004-12-27

you know jodie uses a slide.... for intro..


Smitty1213 - 2004-12-31

Here's how I play it and it sounds pretty good.

(chorus)
-------------------------------
-------------------------------
2-/7-/9-11-4-------------------
-------------------------------
-------------------------------

and for that thing during the verse

-3--------------
----3-----------
-------4--2-----
----------------
----------------
----------------

well that's how i do it. have a great day.


newsgirl37k - 2005-06-28

to bad jodys not in the band anymore i think im amost positive


Soulfire40 - 2006-06-29

Are you serious that Jody's out of the band? I thought that it was Phil Joel off doin his own thing, but i could be wrong i mean, i am only human.


nbfan - 2006-10-19

Jody is out of the band. He has been since '03. Phil is still a member.


Add a comment/correction

Complimentary Christian Ringtones
Dadamobile and CGR have teamed up to bring your favorite Christian artists right to your phone. Sign up today and get 10 complementary ringtones!
Tab Country
Did you know CGR has a sister site w/ country guitar tabs? Well we do! Its called Tab Country. It has a great archive with a lot of country tabs.
Rockin Tabs
Are you looking for a site that has rock guitar tabs? Then Rockintabs.com is the place for you. It is a budding site with many rock guitar tabs. Submit your tab today.
Tab Gallery
Tab Gallery has a compilation of christian, rock, and country tabs all in one place. Come visit us.