Guitar Tabs
song title    band name

Join Us Today!

Don't strum alone...
be a part of the largest online Christian music community. Browse thousands of guitar tabs and chat w/ musicians like yourself.


It's Free!

Newsboys - Always

This tab has been rated a 5.00 out of 5 for accuracy. (1 vote)Sorry, but you must be logged in to rate this tab.
Click here to log-in, or you can click here to register.
(Registration is free)

All songs owned by corresponding publishing company. If you make copies of any song on this website, be sure to report your usage to CCLI.
Author/Artist: Newsboys
Title: Always
Album: Step Up To The Microphone
Transcribed by: .3
Email: r3dstar3@cs.com

This is the tab for the 1st verse
-----------------------------------------
-----------------------------------------
-----------------------------------------
------3-----3-----3-----5----5----5------ 
---5-----5-----5-----3----3----3---------
-----------------------------------------
          
The chorus plays:

----------------------------------------
----------------------------------------
----5----5---5--------------------------
-3----3----3---------------------------- 
----------------------------------------
----------------------------------------

----------------------------------------
----------------------------------------
----5----5-----5------------------------
---------------------------------------- 
-5-----5----5---------------------------
----------------------------------------

----------------------------------------
----------------------------------------
----------------------------------------
-----5----5----5----------3---3----3---- 
--3----3----3----------1----1---1-------

----------------------------------------
----------------------------------------
----------------------------------------
----5----5---5--------------------------
-3----3----3---------------------------- 
----------------------------------------

----------------------------------------
----------------------------------------
----------------------------------------
----------------------------------------
----5----5-----5------------------------
---------------------------------------- 

----------------------------------------
----------------------------------------
----------------------------------------
-----5----5----5------------------------ 
--3----3----3---------------------------
---------------------------------------- 
                                         
2nd Verse

-----------------------------------------
-----------------------------------------
-----------------------------------------
------3-----3-----3-----5----5----5------ 
---5-----5-----5-----3----3----3---------
-----------------------------------------

----------------------------------------
----------------------------------------
----------------------------------------
---5---5---3---3----5---5---5----------- 
-5---5---5---5----3---3---3-------------
---------------------------------------- 




Bridge:
 
  Pete Plays rhythm:

G      A     Bb


G      A     Bb


G      A     Bb     C


Jody?s Riff:


----------------------------------------
----------------------------------------
----12---14---10---12-------------------
-----------------------10----710 
----------------------------------------

Last Chorus:

----------8-----------8-----------------
------------8-----------8---------------
-----10-----------10--------------------
---10-----------10---------------------- 
----------------------------------------
----------------------------------------

----------8-----------8-----------------
------------8-----------8---------------
-----10-----------10--------------------
---10-----------10---------------------- 
----------------------------------------

----------8-----------8-----------------
------------8-----------8---------------
-----10-----------10--------------------
---10-----------10---------------------- 

----------8-----------8-----------------
------------8-----------8---------------
-----10-----------10--------------------
---10-----------10---------------------- 
----------------------------------------
----------------------------------------


----------8-----------8-----------------
------------8-----------8---------------
-----10-----------10--------------------
---10-----------10---------------------- 
----------------------------------------
----------------------------------------

----------8-----------------------------
------------8---------------------------
-----10--------7-----------------
---10----------------------------------- 
----------------------------------------
----------------------------------------


After built up Jody keeps picking this pattern into a solo, cant be tabbed
because its all mostly improvised. 

----------8-----------8-----------------
------------8-----------8---------------
-----10-----------10--------------------
---10-----------10---------------------- 
----------------------------------------
----------------------------------------

Pete Strums Rhythm:

F   D   C  Bb

Pete?s Chord Formations:

F
----------------------------------------
----------------------------------------
-------10-------------------------------
-------10------------------------------- 
---8------------------------------------
----------------------------------------


D
----------------------------------------
---10-----------------------------------
----------------------------------------
---10----------------------------------- 
----------------------------------------
---10-----------------------------------


C
----------------------------------------
----------------------------------------
----------------------------------------
-----10--------------------------------- 
-----10---------------------------------
---8------------------------------------

Bb
----------------------------------------
----------------------------------------
----------------------------------------
----8----------------------------------- 
----8-----------------------------------
--6-------------------------------------

Comments about this tab

Jimmyness - 2006-05-19

Dude this is AWESOME! I don't know about the rythm cuz I don't play it but the tab es awesome. Muchas Gracias!


newsboys#1fan - 2008-10-03

thanks for putting this on. great tab!!!!!


Add a comment/correction

Complimentary Christian Ringtones
Dadamobile and CGR have teamed up to bring your favorite Christian artists right to your phone. Sign up today and get 10 complementary ringtones!
Tab Country
Did you know CGR has a sister site w/ country guitar tabs? Well we do! Its called Tab Country. It has a great archive with a lot of country tabs.
Rockin Tabs
Are you looking for a site that has rock guitar tabs? Then Rockintabs.com is the place for you. It is a budding site with many rock guitar tabs. Submit your tab today.
Tab Gallery
Tab Gallery has a compilation of christian, rock, and country tabs all in one place. Come visit us.