Guitar Tabs
song title    band name

Join Us Today!

Don't strum alone...
be a part of the largest online Christian music community. Browse thousands of guitar tabs and chat w/ musicians like yourself.


It's Free!

Audio Adrenaline - Let My Love Open The Door

This tab has been rated a 3.00 out of 5 for accuracy. (1 vote)Sorry, but you must be logged in to rate this tab.
Click here to log-in, or you can click here to register.
(Registration is free)

All songs owned by corresponding publishing company. If you make copies of any song on this website, be sure to report your usage to CCLI.
Author/Artist: Audio Adrenaline
Title: Let my Love Open the Door
Album: Underdog
Transcribed by: J-Rod Grace
Email: vision_of_venison@hotmail.com

This may not be perfect, but who can catch every
note? I put my own chorus chords on here 'cause
I couldn't hear theirs through most of the song. By the
way, the riff labels are below the staff, sorry but my tabwriter
came from the lowest bidder.

But anyway , hope you enjoy and God Bless

---------------------8-------|---------------------8--------------------------
---------8---------8---8---8-|----8----8---------8---8---8--------------------
----9---------9b10-------8---|--------------9b10-------8----------------------
-10---10---10----------------|-10---10---10-----------------------------------
-----------------------------|------------------------------------------------
-----------------------------|------------------------------------------------
  Intro^

---------------------8-------|---------------------8--------------------------
---------8---------8---8---8-|---------8---------8---8---8--------------------
----9---------9b10-------8---|----9---------9b10-------8----------------------
-10---10---10----------------|-10---10---10-----------------------------------
-----------------------------|------------------------------------------------
-----------------------------|------------------------------------------------
 ^Verse)

---------------------8-------|---------------------8--------------------------
----8----8---------8---8---8-|----8----8---------8---8---8--------------------
--------------9b10-------8---|--------------9b10-------8----------------------
-10---10---10----------------|-10---10---10-----------------------------------
-----------------------------|------------------------------------------------
-----------------------------|------------------------------------------------


-0------------0--------------|--3------8--------------------------------------
-1------------1--------------|--3------8--------------------------------------
-2---------9--2---------9----|--5------9h10-----------------------------------
-2------10----2------10------|--5------10-------------------------------------
-0----8-------0----8---------|--3------8--------------------------------------
-0--8---------0--8-----------|--3------8--------------------------------------
 (^Pre-chorus)

-----------------------------|------------------------------------------------
-----------------------------|------------------------------------------------
-5-5-5-5-5-------------------|-5-5-5-5-5-------------5------------------------
-5-5-5-5-5-10-10-10-10-------|-5-5-5-5-5-10-10-10-10-5------------------------
-3-3-3-3-3-10-10-10-10-------|-3-3-3-3-3-10-10-10-10-3------------------------
-----------8--8--8--8--------|-----------8--8--8--8---------------------------
 ^Chorus riff

---------------------8-------|---------------------8--------------------------
----8----8---------8---8---8-|----8----8---------8---8---8--------------------
--------------9b10-------8---|--------------9b10-------8----------------------
-10---10---10----------------|-10---10---10-----------------------------------
-----------------------------|------------------------------------------------
-----------------------------|------------------------------------------------
 (^verse 2)

-----------------------------|------------------------------0-----------------
-----------------------------|------------------------------1-----------------
-9--------------12-9-10-9----|----13-10----9-12-11-12-11-9--2-----------------
---10-7h10-7h10-----------10-|-10-------10------------------2----12-9-10-9----
-----------------------------|------------------------------0-10-----------10-
-----------------------------|------------------------------0-----------------
 (^solo)

-----------------------------|------------------------------------------------
-----------------------------|-----------------------------13-10--------------
-----------------15----13-15-|-9------9--12-10-12-10----10-------10-----------
----13-10-----12----12-------|---10-7----------------10-----------------------
-10-------10-----------------|------------------------------------------------
-----------------------------|------------------------------------------------


----------------|--------------------------|----------------------------------
----------------|--------------------------|----13-10--------15----13-15------
-12-10-12-10----|-9------9--12-10-12-10----|-10-------10--12----12---------5--
-------------10-|---10-7----------------10-|-------------------------------5--
----------------|--------------------------|-------------------------------3--
----------------|--------------------------|----------------------------------


-8----8----8----8---|---------------------------------------------------------
-8----8----8----8---|---------------------------------------------------------
-9----10---9----10--|---------------------------------------------------------
-10---10---10---10--|---------------------------------------------------------
-8----8----8----8---|---------------------------------------------------------
-8----8----8----8---|---------------------------------------------------------
 ^(final verse)         then finish with chorus...

Comments about this tab

No comments/corrections found. Add your own

Complimentary Christian Ringtones
Dadamobile and CGR have teamed up to bring your favorite Christian artists right to your phone. Sign up today and get 10 complementary ringtones!
Tab Country
Did you know CGR has a sister site w/ country guitar tabs? Well we do! Its called Tab Country. It has a great archive with a lot of country tabs.
Rockin Tabs
Are you looking for a site that has rock guitar tabs? Then Rockintabs.com is the place for you. It is a budding site with many rock guitar tabs. Submit your tab today.
Tab Gallery
Tab Gallery has a compilation of christian, rock, and country tabs all in one place. Come visit us.