Guitar Tabs
song title    band name

Join Us Today!

Don't strum alone...
be a part of the largest online Christian music community. Browse thousands of guitar tabs and chat w/ musicians like yourself.


It's Free!

This tab has been rated a 4.50 out of 5 for accuracy. (2 votes)Sorry, but you must be logged in to rate this tab.
Click here to log-in, or you can click here to register.
(Registration is free)

All songs owned by corresponding publishing company. If you make copies of any song on this website, be sure to report your usage to CCLI.
Song: Marilyn Manson Ate My Girlfriend
Band: Relient K
Album: Relient K
Copyright: 2000 Gotee Records
Tabbed By: Ryan Sawatsky



1]----10---11---10---------------------------
2]8-8----8----8-----8------11-----------10--
3]-----------------------8-8-----8?7-7-----7
4]-----------------------------------------------
5]-----------------------------------------------
6]-----------------------------------------------

Verses:
G-----7--5--9--7
D--5--7--5--9--7
A--5--5--3--7--5
E--3------------

Chorus:
G--5--7-----7--
D--5--7--5--7--
A--3--5--5--5--
E--------3-----


This is my first tab. I am 95% sure that it is right.

Comments about this tab

pat suess - 2004-08-04

i think the verse is wrong, maybe it goes like this
-------------
-------------
----7--5--9--7
-5--7--5--9--7
-5--5--3--7--5
-3-----------


JWIZ1506 - 2004-11-04

You do realize that that's the same thing as what he's got right?


lilsk8rboi411 - 2005-02-02

HAHAHAHAHA THATS FRICKIN FUNNY!


BlackMage - 2005-03-27

oh my god, he put the exact same f-ing thing! how stupid is that!! (in retarded voice) "oh by the way i think the verth (lisp) ith wrong!! i think it goeth like thith." seriously, what a retard!


rockin_4_Christ - 2005-04-07

whoa chill dude


BandStokReTT - 2005-04-15

I know! I think you need to tune it down a notch cuz hey nobody's perfect............................................. it's an honost mistake


acrossthesirion - 2005-04-19

There should be a pre chorus
e------------------------
B------------------------
G-55-55-55-5--77-77-77-7-
D-55-55-55-5--77-77-77-7-
A-33-33-33-3--55-55-55-5-
E------------------------
** ** ** **

and the chorus is
e-------------------------------------------------
B-------------------------------------------------
G-------------77-77-77-7--55-55-55-5--77-77-77-7--
D-55-55-55-5--77-77-77-7--55-55-55-5--77-77-77-7--
A-55-55-55-5--55-55-55-5--33-33-33-3--55-55-55-5--
E-33-33-33-3--------------------------------------
** ** ** ** ** ** ** **


acrossthesirion - 2005-04-19

sorry the palm mutes didn't line up


punksterbug - 2005-05-16

I really like this song. RELIENT K ROCKS!!! just thought you all should know...


Godswonton - 2005-07-14

Hey, blackmage, calm yourself down. Look at your own mistakes when you realize others have made theirs. In this case, not using that behaviour against pat seuss.


tsr4e - 2005-09-01

Jesus loves u blackmage


jamforchrist123 - 2005-10-19

true, esr4e


jamforchrist123 - 2005-10-19

*Tsr4e


themanthemyth - 2005-11-20

blackmage you need to watch the attitude man. this is a christian site and it might be cool if you represented jesus on here or otherwise go to some other site.


gsus_freak7 - 2006-01-12

Seriously, blackmage, what was that? We all make mistakes. Let it go.


RK RocKs!


JesusFreak_girl - 2006-05-01

hey blackmage, r u ok?? *chill*


Einstein - 2006-05-08

You named the song wrong. It's just "My Girlfriend"
Einstein


carrik_caser - 2007-04-23

It makes me sad that i came 2 years too late to join the fun. And Hey Einstien no one except you cares if he got the name wrong.


-Carrik


Add a comment/correction

Complimentary Christian Ringtones
Dadamobile and CGR have teamed up to bring your favorite Christian artists right to your phone. Sign up today and get 10 complementary ringtones!
Tab Country
Did you know CGR has a sister site w/ country guitar tabs? Well we do! Its called Tab Country. It has a great archive with a lot of country tabs.
Rockin Tabs
Are you looking for a site that has rock guitar tabs? Then Rockintabs.com is the place for you. It is a budding site with many rock guitar tabs. Submit your tab today.
Tab Gallery
Tab Gallery has a compilation of christian, rock, and country tabs all in one place. Come visit us.