Guitar Tabs
song title    band name

Join Us Today!

Don't strum alone...
be a part of the largest online Christian music community. Browse thousands of guitar tabs and chat w/ musicians like yourself.


It's Free!

Relient K - Lion Wilson

This tab has been rated a 3.33 out of 5 for accuracy. (3 votes)Sorry, but you must be logged in to rate this tab.
Click here to log-in, or you can click here to register.
(Registration is free)

All songs owned by corresponding publishing company. If you make copies of any song on this website, be sure to report your usage to CCLI.
Song: Lion Wilson(3 Part Guitar Version)
Artist: Relient K
Album: Anatomy Of Tongue In Cheek
Tabbed By: Lorne Singbiel(The One And Only)

                       **********************************************
                       *      Lion Wilson(3 Part Guitar Version)    *
                       **********************************************

GUITAR 1 (Main Guitar) - Starts off before the other 2 guitars cut in.
e|-------------------------------------------------------------------
B|-------------------------------------------------------------------
G|-------------------------------------------------------------------
D|--1-2--2h4--2-1--1h2---------------1-2--2h4--2-1--1h2--------------
A|-------------------------------------------------------------------
E|-------------------------------------------------------------------

e|-------------------------------------------------------------------
B|-------------------------------------------------------------------
G|-----------------1----2----1--/4--3----2---------------------------
D|--1-2--2h4--2-1-----------------------------4----6-----------------
A|-------------------------------------------------------------------
E|-------------------------------------------------------------------

GUITAR 2 - Cuts in along with Guitar 3 just after that first little part
at the beginning of guitar 1 is played(you'll know exactly what I mean if
you're familiar with the real song).
e|-------------------------------------------------------------------
B|-------------------------------------------------------------------
G|-------------------------------------------------------------------
D|-------------------------------------------------------------------
A|--11-11-11-11-11-11-11-11-11-11-11-11-9-9-9-9-11-11-11-11-11-11-11-
E|-------------------------------------------------------------------

e|-------------------------------------------------------------------
B|-------------------------------------------------------------------
G|-------------------------------------------------------------------
D|-------------------------------------------------------------------
A|11-11-11-11-11-9-9-9-9-11----12----11--14--13-----12----9----11----

GUITAR 3 - This part is played with power chords and sounds so nice along
with the rest. Play these chords at exactly the same beat as guitar 2 and
use your palm to stop it after each strum.
e|-------------------------------------------------------------------
B|-------------------------------------------------------------------
G|--6-6-6-6---------9-9-9-9-8-8-8-8-6-6-6-6---------9-9-9-9-8-8-8-8--
D|--6-6-6-6-7-7-7-7-9-9-9-9-8-8-8-8-6-6-6-6-7-7-7-7-9-9-9-9-8-8-8-8--
A|--4-4-4-4-7-7-7-7-7-7-7-7-6-6-6-6-4-4-4-4-7-7-7-7-7-7-7-7-6-6-6-6--
E|----------5-5-5-5-------------------------5-5-5-5------------------

e|-------------------------------------------------------------------
B|-------------------------------------------------------------------
G|--6----5----4-----8-----7----4-------------------------------------
D|--6----5----4-----8-----7----4----4--------------------------------
A|--4----3----2-----6-----5----2----4--------------------------------
E|----------------------------------2--------------------------------

This is a cool song originally sung without music but I listened to each
of the singers and applied a guitar to play each note each singer sings
and tried it out on my guitar and the guitars harmonize so nicely together.
I recorded myself playing each part separately and edited them together and
it sounds kinda neat. if you can't figure out how to play this song on your
own then     E-mail me and ask for the song and I'll send you the recording
I made so you can hear it and play along. E-mail me at
christiantabs@hotmail.com.

Comments about this tab

Penguin_Lover - 2005-01-30

this is sung not played


onesided_mirror - 2005-05-03

Awesome tab!

To Penguin_Lover:
it says "This is a cool song originally sung without music but I listened to each of the singers and applied a guitar to play each note each singer sings
and tried it out on my guitar and the guitars harmonize so nicely together."


Add a comment/correction

Complimentary Christian Ringtones
Dadamobile and CGR have teamed up to bring your favorite Christian artists right to your phone. Sign up today and get 10 complementary ringtones!
Tab Country
Did you know CGR has a sister site w/ country guitar tabs? Well we do! Its called Tab Country. It has a great archive with a lot of country tabs.
Rockin Tabs
Are you looking for a site that has rock guitar tabs? Then Rockintabs.com is the place for you. It is a budding site with many rock guitar tabs. Submit your tab today.
Tab Gallery
Tab Gallery has a compilation of christian, rock, and country tabs all in one place. Come visit us.