Guitar Tabs
song title    band name

Join Us Today!

Don't strum alone...
be a part of the largest online Christian music community. Browse thousands of guitar tabs and chat w/ musicians like yourself.


It's Free!

P.O.D. - Checkin Levels

This tab has been rated a 5.00 out of 5 for accuracy. (1 vote)Sorry, but you must be logged in to rate this tab.
Click here to log-in, or you can click here to register.
(Registration is free)

All songs owned by corresponding publishing company. If you make copies of any song on this website, be sure to report your usage to CCLI.
Song     : Checkin' levels
Album    : The Fundamental Elements Of Southtown
Artist   : POD
Copyright: 1999 Atlantic Records

I think that this version is more accurate than the other two that are on
your site.  
And also, you might want to take the periods out from between "POD" where
you have the artist name box on your submit tab page.  Even though its
proper grammer I was looking forever to find POD on your list because it
was at the very top of the "P" section.
(x2)
e----------------------------------------------------------
B----------------------------------------------------------
G----------------------------------------------------------
D----------------------------------------------------------
A---0-0-5-3-1------0-0-5-3-1--5/6\5------------------------
E----------------------------------------------------------

(x2)
e----------------------------------------------------------
B----------------------------------------------------------
G----------------------------------------------------------
D---0-0-5-3-1------0-0-5-3-1--5/6\5------------------------
A-----------------------------------5/6\5------------------
E----------------------------------------------------------

(x1)
e----------------------------------------------------------
B----------------------------------------------------------
G----------------------------------------------------------
D----------------------------------------------------------
A---0-0-5-3-1------0-0-5-3-1--5/6\5-------0-0-5-3-1--------
E----------------------------------------------------------

(Fades out)

Send Questions or Corrections to:  amarciano@ctc.net

Comments about this tab

Tyran001 - 2005-03-08

this is great! sounds perfect!


Guitarman102 - 2005-10-15

I'm not sure but i thought it sounded alittle more like it with
5/3\5 instead of 5/6\5 0_o lol just curious.

e----------------------------------------------------------
B----------------------------------------------------------
G----------------------------------------------------------
D----------------------------------------------------------
A---0-0-5-3-1------0-0-5-3-1--5/3\5------------------------
E----------------------------------------------------------


Add a comment/correction

Complimentary Christian Ringtones
Dadamobile and CGR have teamed up to bring your favorite Christian artists right to your phone. Sign up today and get 10 complementary ringtones!
Tab Country
Did you know CGR has a sister site w/ country guitar tabs? Well we do! Its called Tab Country. It has a great archive with a lot of country tabs.
Rockin Tabs
Are you looking for a site that has rock guitar tabs? Then Rockintabs.com is the place for you. It is a budding site with many rock guitar tabs. Submit your tab today.
Tab Gallery
Tab Gallery has a compilation of christian, rock, and country tabs all in one place. Come visit us.