Guitar Tabs
song title    band name

Join Us Today!

Don't strum alone...
be a part of the largest online Christian music community. Browse thousands of guitar tabs and chat w/ musicians like yourself.


It's Free!

This tab has been rated a 0.00 out of 5 for accuracy. (1 vote)Sorry, but you must be logged in to rate this tab.
Click here to log-in, or you can click here to register.
(Registration is free)

All songs owned by corresponding publishing company. If you make copies of any song on this website, be sure to report your usage to CCLI.
Title: I Dont Want to Change the World
Artist: Squad Five-0
Album: Squad Five-0
Copyright 2001 Tooth and Nail Records
Tabbed by Chris Priestley - tobianthes@aol.com
Comments: This is a great song to play, its written all in power chords.
The strum pattern is really easy once you get used to it. 

*Standard Tuning: EADGBe*

Pre-Intro: 

Guitar 1:
E---- 7\5-5/8--
B--------------- several xs 
G---------------

Guitar 2:
D---9---
A---9---
E---7---

Intro:
Guitar 2:
B  e  B  A      x 4

Guitar 1:
B-------------------------------
G ---7----9--11----7-----6--4   x 2
D-------------------------------

Verse 1:
A  B  e   x4

Pre-Chorus:
A  B  A  e
A  B  e 

Chorus:
D-----------------
A----5---7--9----- |
E--------------9-- |
                   | x2                     
D----------------  |
A----5---3--2----  |
E----------------
				
Chorus ends on "B"

Interlude:
E--------------------------------
B--9^---7^---7^---9^---9^---7^---
G--------------------------------

Verse 2 and Pre-chorus same as first.

Second chorus same as first until:

"I just wanna change your mind"
A  e   B  B
A  e   B  e

Solo:
E----------------------------------------------------------
B --12--10--9--8----12--10--9-----12--11-11--12--14--15^---
G----------------------------------------------------------

Third pre-chorus:
A  B  A  e
A  B  e(pm) e x 4
B

Bridge:
B---9--10--9-------
D---------------9---  x 4

last chorus repeats "e" and "B"
A e  B

Guitar 1:
E---- 7\5-5/8--
B--------------- several xs 
G---------------

A e  B

End with two  Bs

Chords:
     
     B     e    A      
E---------------------
B---------------------
G----------9----------
D----9-----9----7-----
A----9-----7----7-----
E----7----------5-----
 
pm = palm mute
/ = slide up
\ = slide down
^ = bend

Have fun!
Chris, MXPX rocks! 

Comments about this tab

UGmember_PILLAR - 2005-01-06

yes MxPx is the best!!!!!!!!!!!!!!!!!!!!!!
whhoo-hhoo!!!!!!!!


Add a comment/correction

Complimentary Christian Ringtones
Dadamobile and CGR have teamed up to bring your favorite Christian artists right to your phone. Sign up today and get 10 complementary ringtones!
Tab Country
Did you know CGR has a sister site w/ country guitar tabs? Well we do! Its called Tab Country. It has a great archive with a lot of country tabs.
Rockin Tabs
Are you looking for a site that has rock guitar tabs? Then Rockintabs.com is the place for you. It is a budding site with many rock guitar tabs. Submit your tab today.
Tab Gallery
Tab Gallery has a compilation of christian, rock, and country tabs all in one place. Come visit us.