Guitar Tabs
song title    band name

Join Us Today!

Don't strum alone...
be a part of the largest online Christian music community. Browse thousands of guitar tabs and chat w/ musicians like yourself.


It's Free!

Audio Adrenaline - Ocean Floor

This tab has been rated a 4.83 out of 5 for accuracy. (18 votes)Sorry, but you must be logged in to rate this tab.
Click here to log-in, or you can click here to register.
(Registration is free)

All songs owned by corresponding publishing company. If you make copies of any song on this website, be sure to report your usage to CCLI.
OCEAN FLOOR
Audio Adrenaline
From the 2001 Album LIFT

Transcribed by Andrew Schell          sonnyschell@hotmail.com

I've tabbed out the lead and chords for all parts (correcting some from
the previous chord sheets).  I did this with Powertab Editor, so if you 
don't understand a notation, read the legend at the bottom.


CHORDS:
CIII	x 3 5 5 5 x          
C	x 3 2 0 1 0          
Fmaj7	x x 3 2 1 0          
Am	x 0 2 2 1 0
G	3 2 0 0 3 3
Dm      x x 0 2 3 1   
F       1 3 3 2 1 1
C5/Eb   x x 1 0 1 x

INTRO  74 bpm
  CIII
  Gtr I (elec. dist)
|---------------------|--------------------|
|----5-5-6p5h6--5-6p5-|----5-5-6p5h6-5-6p5-|
|-5--5-5-5---5--5-5---|-5--5-5-5---5-5-5---|
|-5--5-5-5---5--5-5---|-5--5-5-5---5-5-5---|
|-3----------3--------|-3----------3-------|
|---------------------|--------------------|
|
| Gtr II (elec. dist)
|---------------------|--------------------|
|---------------x-x-x-|--------------------|
|---------------x-x-x-|--------------------|
|---------------x-x-x-|--------------------|
|---------------x-x-x-|--------------------|
|---------------------|--------------------|

   CIII
|---------------------|------------------------|
|-----5-5-6p5h6-5-6p5-|------5-5-6p5h6---5-6p5-|
|--5--5-5-5---5-5-5---|--5---5-5-5---5---5-5---|
|--5--5-5-5---5-5-5---|--5---5-5-5---5---5-5---|
|--3----------3-------|--3-----------3---------|
|---------------------|------------------------|
|  C
|-^0------------------|------------------------|
|-^1------------------|----------------------1-|
|-^0------------------|--------------------0---|
|-^2------------------|----------------2h3-----|
|-^3------------------|------------------------|
|---------------------|------------------------|

  C                           Fmaj7
  Gtr III (acoustic strumming above chords)
  Gtr I
|---------------------------|---------------------------|
|---1h3-3-1-3p1-3-----1-3p1-|-x-x-1h3-3-1-3p1-3---1-3p1-|
|---------------------------|-x-x-----------------------|
|---------------------------|-x-x-----------------------|
|---------------------------|---------------------------|
|---------------------------|---------------------------|
|
| Gtr II
|---------------------------|-0-------------------------|
|-1-------------------1---1-|-1-----------------------1-|
|-0-------------------0-0-0-|-2---------------------0---|
|-2-------------------2-2-2-|-3-----------------2h3-----|
|-3---------------------3---|---------------------------|
|---------------------------|---------------------------|

  Am          G             C
|-------------------------|-------------------------|
|-x-x-1h3-3-1-3p1-3-1-3p1-|-x-x-1h3-3-1-3p1-3-1-3p1-|
|-x-x---------------------|-x-x---------------------|
|-x-x---------------------|-x-x---------------------|
|-------------------------|-------------------------|
|-------------------------|-------------------------|
|
|-0-----------------------|-------------------------|
|-1-----------3-----------|-1-----------------------|
|-2-----------0-----------|-0-----------------------|
|-2-----------0-----------|-2-----------------------|
|-0-----------2-----------|-3-----------------------|
|-------------3-----------|-------------------------|


 VERSE I
  Fmaj7         C
  Gtr III (acoustic continues strumming chords)
  Gtr II
|-0-----------|-------------|
|-1-----------|-1-----------|
|-2-----------|-0-----------|
|-3-----------|-2-----------|
|-------------|-3-----------|
|-------------|-------------|

  Fmaj7         G
|-0-----------|----------------|
|-1-----------|-3--------------|
|-2-----------|-0--------------|
|-3-----------|-0--------------|
|-------------|-2----2---------|
|-------------|-3--------------|

  Dm                C
|-----------------|-0-----------|
|-------3----3----|-1-----------|
|-------0h2--0----|-0-----------|
|-0---------------|-2-----------|
|-----------------|-3-----------|
|-----------------|-------------|

  Dm                  F
|-------------------|-------------|
|-3-----------------|-1-----------|
|-2-----2--0--------|-2-----------|
|-0-----------------|-3-----------|
|-------------------|-3-----------|
|-------------------|-------------|


 CHORUS
    C                           Fmaj7
    Gtr III (chords)
    Gtr I
||----------------------------|---------------------------|
||o---1h3-3-1--3p=1-3---1-3p1-|-x-x-1h3-3-1-3p1-3---1-3p1-|
||----------------------------|-x-x-----------------------|
||----------------------------|-x-x-----------------------|
||o---------------------------|---------------------------|
||----------------------------|---------------------------|
|
|   Gtr II
||----------------------------|-0-------------------------|
||--1-----------------------1-|-1-----------------------1-|
||o-0---------------------0---|-2---------------------0---|
||o-2---------------2-2h3-----|-3-----------------2h3-----|
||--3-------------------------|---------------------------|
||----------------------------|---------------------------|

  Am          G
|-------------------------|
|-x-x-1h3-3-1-3p1-3-1-3p1-|
|-x-x---------------------|
|-x-x---------------------|
|-------------------------|
|-------------------------|
|
|-0-----------------------|
|-1-----------3-----------|
|-2-----------0-----------|
|-2-----------0-----------|
|-0-----------2-----------|
|-------------3-----------|

  ______________________________________________________
 |1.                         | 2.
  C                             C
|----------------------------||-------------------------|
|-x-x-1h3-3-1-3p1-3---1-3p1-o||-x-x-1h3-3-1-3p1-3-1-3p1-|
|-x-x------------------------||-x-x---------------------|
|-x-x------------------------||-x-x---------------------|
|---------------------------o||-------------------------|
|----------------------------||-------------------------|
|
|----------------------------||-------------------------|
|-1-----------------------1-o||-1-----------------------|
|-0---------------------0----||-0-----------------------|
|-2-----------------2h3------||-2-----------------------|
|-3-------------------------o||-3-----------------------|
|----------------------------||-------------------------|


 VERSE 2
  Fmaj7         C
  Gtr II
|-0-----------|-------------|
|-1-----------|-1-----------|
|-2-----------|-0-----------|
|-3-----------|-2-----------|
|-------------|-3-----------|
|-------------|-------------|

  Fmaj7         G
|-0-----------|----------------|
|-1-----------|-3--------------|
|-2-----------|-0--------------|
|-3-----------|-0--------------|
|-------------|-2----2---------|
|-------------|-3--------------|

  Dm                C
|-----------------|-0----------------|
|-------3----3----|-1----------------|
|-------0h2--0----|-0------------0---|
|-0---------------|-2--------2h3---2-|
|-----------------|-3----------------|
|-----------------|------------------|

  Dm                   F                F
|--------------------|----------------|-------------------|
|-----3--------------|------1---------|-1-------------1-1-|
|-----2--2--0--------|------2---------|-2-------------2-2-|
|-0------------------|------3---------|-3-------------3-3-|
|--------------------|-3--------------|-3-----------------|
|--------------------|----------------|-------------------|


 CHORUS 2
    C                         Fmaj7
    Gtr III (chords)
    Gtr I
||--------------------------|---------------------------|
||o---1h3-3-1-3p1-3---1-3p1-|-x-x-1h3-3-1-3p1-3---1-3p1-|
||--------------------------|-x-x-----------------------|
||--------------------------|-x-x-----------------------|
||o-------------------------|---------------------------|
||--------------------------|---------------------------|
|
|   Gtr II
||--------------------------|-0-------------------------|
||o-1---------------------1-|-1-----------------------1-|
||--0-------------------0---|-2---------------------0---|
||--2---------------2h3-----|-3-----------------2h3-----|
||o-3-----------------------|---------------------------|
||--------------------------|---------------------------|

  Am          G
|-------------------------|
|-x-x-1h3-3-1-3p1-3-1-3p1-|
|-x-x---------------------|
|-x-x---------------------|
|-------------------------|
|-------------------------|
|
|-0-----------------------|
|-1-----------3-----------|
|-2-----------0-----------|
|-2-----------0-----------|
|-0-----------2-----------|
|-------------3-----------|

  ______________________________________________________
 |1.,2.                      | 3.
  C                             C
                             3x
|----------------------------||-------------------------|
|-x-x-1h3-3-1-3p1-3---1-3p1-o||-x-x-1h3-3-1-3p1-3-1-3p1-|
|-x-x------------------------||-x-x---------------------|
|-x-x------------------------||-x-x---------------------|
|---------------------------o||-------------------------|
|----------------------------||-------------------------|
|
|                            3x
|----------------------------||-------------------------|
|-1-----------------------1-o||-1-----------------------|
|-0---------------------0----||-0-----------------------|
|-2-----------------2h3------||-2-----------------------|
|-3-------------------------o||-3-----------------------|
|----------------------------||-------------------------|


 SOLO
  C5/Eb
 Gtr I
|-----------|------------|
|-1---------|------------|
|-0---------|------------|
|-1------3--|------------|
|-----------|-3----------|
|-----------|------------|

  Gtr I
|-----------------|--------------------------------|
|-1---------------|--------------------------------|
|-0----------0----|--------------------------------|
|-1----------3----|--------------------------------|
|-----------------|--3-----------------------------|
|-----------------|--------------------------------|
|
| Gtr II
|-----------------|--------------------------------|
|-----3-b4r(3)p1--|-------13b15r(13)-13b15r(13)----|
|-----------------|-----------------------------12-|
|-----------------|--------------------------------|
|-----------------|--------------------------------|
|-----------------|--------------------------------|

|---------------------------|------------------------------------------|
|-1-------------------------|------------------------------------------|
|-0-------------------------|----------------------------------7p5-7p5-|
|-1-------------------------|------------------------------------------|
|-----------------1-h-3---5-|-3----------------------------------------|
|---------------------------|------------------------------------------|
|      hold bend
|---------------------------|------------------------------------------|
|------------13--13---------|----13b15r(13)-13b15r(13)-----6p5-6p5-----|
|----14b15-----pb14r(14)-12-|--------------------------12----------7p5-|
|---------------------------|------------------------------------------|
|---------------------------|------------------------------------------|
|---------------------------|------------------------------------------|

                                                   F
|----------------------------|-------------------|-1--------------|
|--------1-------------------|-------------------|-1------------1-|
|-----0-----0----------------|-------------------|-2----------0---|
|-0h1------------------------|-3---3-3-3-3-------|-3------2h3-----|
|----------------------------|-------------------|-3--------------|
|----------------------------|-------------------|----------------|
|
|----------------------------|-------------------|----------------|
|-----------6--6-------------|-5h6-6-6-6-6-6-6-6-|-6--------------|
|-7b8-------7----pb7r(7)-5---|-5-5-5-5-5-5-5-5-5-|-5--------------|
|----------------------------|-------------------|----------------|
|----------------------------|-------------------|----------------|
|----------------------------|-------------------|----------------|


 CHORUS 3
    C                         Fmaj7
    Gtr III (chords)
    Gtr I
||--------------------------|---------------------------|
||o---1h3-3-1-3p1-3---1-3p1-|-x-x-1h3-3-1-3p1-3---1-3p1-|
||--------------------------|-x-x-----------------------|
||--------------------------|-x-x-----------------------|
||o-------------------------|---------------------------|
||--------------------------|---------------------------|
|
|   Gtr II
||--------------------------|-0-------------------------|
||o-1---------------------1-|-1-----------------------1-|
||--0-------------------0---|-2---------------------0---|
||--2---------------2h3-----|-3-----------------2h3-----|
||o-3-----------------------|---------------------------|
||--------------------------|---------------------------|

                           ____________________________
                          |1.,2.,3.                    |
  Am          G             C
                                                       4x
|-------------------------|----------------------------||
|-x-x-1h3-3-1-3p1-3-1-3p1-|-x-x-1h3-3-1-3p1-3---1-3p1-o||
|-x-x---------------------|-x-x------------------------||
|-x-x---------------------|-x-x------------------------||
|-------------------------|---------------------------o||
|-------------------------|----------------------------||
|
|                                                      4x
|-0-----------------------|----------------------------||
|-1-----------3-----------|-1-----------------------1-o||
|-2-----------0-----------|-0---------------------0----||
|-2-----------0-----------|-2-----------------2h3------||
|-0-----------2-----------|-3-------------------------o||
|-------------3-----------|----------------------------||

 _____________________________
|4.
  C
|-----------------------------|
|-x-x-1h3-3-1-3p1-3----1-3p1--|
|-x-x-------------------------|
|-x-x-------------------------|
|-----------------------------|
|-----------------------------|
|
|--------------------------8--|
|-1----------------------8----|
|-0-----------------9h10------|
|-2---------------------------|
|-3---------------------------|
|-----------------------------|


  70 bpm      (tempo slows down)
  C            Fmaj7
  Gtr III (chords)
  Gtr II
|------------|---------------8-|
|------------|-------------8---|
|-9----------|--------9h10-----|
|------------|-----------------|
|------------|-----------------|
|------------|-----------------|

  Am    G         C
|---------------|---------*|
|---------------|---------*|
|-9-----10-9----|---------*|
|---------------|-10------*|
|---------------|---------*|
|---------------|---------*|


Tablature Legend
----------------
 h   - hammer-on
 p   - pull-off
 b   - bend 		
        ex:  |--14b15r(14)--|  
	bend the string up half a step and then release
 pb  - pre-bend
	ex:  |--14b15--pb14r(14)-|
	the first is a half bend, the bend is held and the 
	string is struck again and then released
 r   - bend release (if no number after the r, then release immediately)
 /\  - slide into or out of 
 x   - on rhythm slash represents muted slash

Misc Legend
-----------
 |  - bar
||  - double bar
||o - repeat start
o|| - repeat end
 ______
|1.    | - (this can be confusing) Usually accompanied by a repeat bar
	   the # means the ending to the part repeated. ie a "2" would
	   be the second ending and so on. You play from the start 
	   repeat sign to the repeat end sign.  With the last # ending
	   you substitute this ending for the previous ones.

***************************************************
* Generated using Power Tab Editor by Brad Larsen *
*        http://powertab.guitarnetwork.org        *
***************************************************

Comments about this tab

d. bradley - 2004-01-11

Great tab!!!


Adam K - 2004-03-05

Great Tab, Great Job.


starseed - 2004-05-06

Well done :) I've been looking for a decent tab of this song for a while.


omensixaxe - 2004-05-13

amazing tab....thanks a lot


Dawgeetar - 2004-08-11

Hey, I've got the Lift Music video, and on that Tyler uses a capo on the 3rd fret. I think that might make it even better.


scheller - 2004-08-21

yeah, I've seen that video and meant to say something about it in the tab. It makes the intro a lot easier to play because you're having to barre the third fret and do that hammer-on with your pinky. But other parts of the song can't be played with a capo, so you'd need two guitars at least.


churchpunk42_ - 2004-09-02

sweet dude! awesome tab..i love the solo.


ryanxxxx - 2004-12-14

hey could some one tab lonely man that song rules


Prokrow - 2005-02-13

This tab is perfect...great job man!


BreakComa7 - 2005-02-14

there is no such thing better than this tab right here, awesome job man, you've got a God given talent


CCbuilding0114 - 2005-12-25

I sang the first verse as a solo in my church and fell in love with the song, i'm so happy that i can play it now too!


sanktified rock - 2006-01-16

GREAT TAB!!!


ChurchPunk88 - 2006-08-06

Good job but in concert they had a capo on the 2nd fret for this song... Sorry for being the bear of bad news.. but do u think u can tab it again?


prsfan21 - 2007-04-10

Based of the Alive dvd, Tyler uses a capo on the 3rd fret, and there was a second guitarist with no capo playing the other part.


Add a comment/correction

Complimentary Christian Ringtones
Dadamobile and CGR have teamed up to bring your favorite Christian artists right to your phone. Sign up today and get 10 complementary ringtones!
Tab Country
Did you know CGR has a sister site w/ country guitar tabs? Well we do! Its called Tab Country. It has a great archive with a lot of country tabs.
Rockin Tabs
Are you looking for a site that has rock guitar tabs? Then Rockintabs.com is the place for you. It is a budding site with many rock guitar tabs. Submit your tab today.
Tab Gallery
Tab Gallery has a compilation of christian, rock, and country tabs all in one place. Come visit us.