Guitar Tabs
song title    band name

Join Us Today!

Don't strum alone...
be a part of the largest online Christian music community. Browse thousands of guitar tabs and chat w/ musicians like yourself.


It's Free!

This tab has been rated a 5.00 out of 5 for accuracy. (1 vote)Sorry, but you must be logged in to rate this tab.
Click here to log-in, or you can click here to register.
(Registration is free)

All songs owned by corresponding publishing company. If you make copies of any song on this website, be sure to report your usage to CCLI.
One Girl Army
Five Iron Frenzy
Quantity is Job 1
5 Minute Walk Records

Standard Tuning (EADGBe)
transcribed by mike Young (praisinGod2day@yahoo.com)

If you think this tab is good, feel free to e-mail me with any other
requests, especially FIF.  Also e-mail me with any questions you might
have.  I check my e-mail a lot.  The chords used in the song are listed
below.  Listen to the song for the rhythm.

Gtr 1 - overdriven electric
Gtr 2 - overdriven electric
Gtr 3 - clean electric w/ ska rhythm

Chord Chart:
   A5   G5      C5      D5      F5       E5     F#5     A      Em       G
e-|-----------------------------------------------------5-------7-------3-|
B-|-----------------------------------------------------5-------8-------3-|
G-|-----------------------------------------------------6-------9-------4-|
D-|-------------5-------7-------------------------------7-------9-------5-|
A-|-7---5-------3-------5-------3--------2-------4------7-------7-------5-|
E-|-5---3-----------------------1--------0-------2------5---------------3-|

   B    F#     G#5     B5      C5(II)   a5      g#5    b5      c5      g5
-|-7----2-----------------------------------------------------------------|
-|-7----2-----------------------------------------------------------------|
-|-8----3-------------------------------14------13------16------17-----12-|
-|-9----4--------------------------------x-------x-------x-------x------x-|
-|-9----4-------6-------9--------10-----12------11------14------15-----10-|
-|-7----2-------4-------7---------8---------------------------------------|

  f#5   e5      D5(II) d5
-|-------------------------|
-|-------------------------|
-|-11----9--------------19-|
-|--x----x---------------x-|
-|--9----7--------12----17-|
-|----------------10-------|


Intro:
Gtrs 1&2
*Feedback*...  A5 G5 C5 D5 F5 G5 A5
G5-C5-A5 G5 C5 D5 F5 G5 E5

Verse 1:
Gtr 1
                               D5                    G5        F#5 F5
e-|--------------------------|-----------------------------------------|
B-|--------------------------|-----------------------------------------|
G-|-----5--------------------|-----------------------------------------|
D-|-7-7---7----------5----x2-|-----7------------7---------5------4---3-| x4
A-|----------7-7-7-7---7-----|-5-5---5--5-5-5-5---5\3-3-3---3--2---1---|
E-|--------------------------|-----------------------------------------|
PM----|   PM-------|   PM--------|   PM-------|      PM-|      Slight PH

Gtr 3
A  Em  A  Em  G  B  F#
A  Em  A  Em  G  B  F#
A  Em  A  Em  G  B  F#
A  Em  A  Em  G  B  A

Pre-Chorus 1:
Gtr 1
A5 G#5 A5 B5 C5(II) B5 A5 G5 F#5
G5 E5 A5 B5

Gtr 2
a5 g#5 a5 b5 c5 b5 a5 g5 f#5
e5/g5 a5 b5

Chorus 1:
Gtrs 1&2
A5 G5 C5 D5 F5 G5 A5
G5-C5-A5 G5 C5 D5 F5 G5 E5

Verse 2:
Gtr 1 x2

Gtr 3
A Em A Em G B F#
A Em A Em G B A

Pre-chorus 2:
Gtr 1
A5 G#5 A5 B5 C5(II) B5 C5(II) D5(II) A5
G5 E5 A5 B5

Gtr 2
a5 g#5 a5 b5 c5 b5 c5 d5 a5
e5/g5 a5 b5

Interlude:
Gtrs 1&2
D-|--------------------------------------|--------------------------|
A-|-0-0--0-2-3---0-2-3---0-2-3---0-2--x7-|-0-0--0-2-3---0-2-3-------|
E-|------------3-------3-------3---------|------------3-------3-3-0-|
PM---------------------------------------|----------------------|

Pre-chorus 3:
Gtr 1
A5 G#5 A5 B5 C5 B5 A5 G5 F#5
E5/G5 F#5/G#5

A5 G#5 A5 B5 C5 B5 C5 D5 A5
E5/G5 F#5/G#5

Gtr 2
a5 g#5 a5 b5 c5 b5 a5 g5 f#5
e5/g5 f#5/g#5

a5 g#5 a5 b5 c5 b5 c5 d5 a5
e5/g5 f#5/g#5

Outro:
Gtrs 1&2
A5 G5 C5 D5 F5 G5 A5
G5-C5-A5 G5 C5 D5 F5 G5 E5 C5-G5-A5\

Comments about this tab

No comments/corrections found. Add your own

Complimentary Christian Ringtones
Dadamobile and CGR have teamed up to bring your favorite Christian artists right to your phone. Sign up today and get 10 complementary ringtones!
Tab Country
Did you know CGR has a sister site w/ country guitar tabs? Well we do! Its called Tab Country. It has a great archive with a lot of country tabs.
Rockin Tabs
Are you looking for a site that has rock guitar tabs? Then Rockintabs.com is the place for you. It is a budding site with many rock guitar tabs. Submit your tab today.
Tab Gallery
Tab Gallery has a compilation of christian, rock, and country tabs all in one place. Come visit us.