Guitar Tabs
song title    band name

Join Us Today!

Don't strum alone...
be a part of the largest online Christian music community. Browse thousands of guitar tabs and chat w/ musicians like yourself.


It's Free!

Kutless - Tonight

This tab has been rated a 1.25 out of 5 for accuracy. (4 votes)Sorry, but you must be logged in to rate this tab.
Click here to log-in, or you can click here to register.
(Registration is free)

All songs owned by corresponding publishing company. If you make copies of any song on this website, be sure to report your usage to CCLI.
Author/Artist:Kutless
Title:Tonight
Album: Kutless
Tabbed by:Tim Cowan
Email:Punkjamma88@wmconnect.com

        Drop D tuning
          
           Intro:Play through once
    e|---------------------------------------------------|
    B|---------------------------------------------------|
    G|---------------------------------------------------|
    D|--0-----0H1-0---0---0--0H1-0---0---0--0H1-1H3-3--0-|
    A|--------------4--------------4---------------------|
    D|-0-----0---0-0-0---0--0---0-0-0---0--0---0------0--|

Then the intro goes into this:It is also the chorus
(I'm not really sure how many times they strum the chords)
These chords might not even be right but they sound okay to me at least.
    
   e|-----------------------------------------------|
   B|-----------------------------------------------|
   G|---------------3-3---------------5-------------|
   D|-0-0-0h3-3-3-3-3-3-0-0-0h3-3-3-3-5-0-3-2-0-2-0-|
   A|-0-0-0h3-3-3-3-1-1-0-0-0h3-3-3-3-3-0-3-2-0-2-0-|
   D|-0-0-0h3-3-3-3-----0-0-0h3-3-3-3---0-3-2-0-2-0-|
            
Verse: (During some of the verses they play the low D5 chord palm muted)

   e|--------------|
   B|--------------|
   G|--------------|        Repeat a lot during the verse
   D|--0--0h1-0----|
   A|-----------4--|
   D|-0--0---0-0-0-|


Well, that's all I have done right now. I'll try to figure out the solo.
This is the first tab I've ever done so I don't know if I got even close.
Email me at Punkjamma88@wmconnect.com    

Comments about this tab

No comments/corrections found. Add your own

Complimentary Christian Ringtones
Dadamobile and CGR have teamed up to bring your favorite Christian artists right to your phone. Sign up today and get 10 complementary ringtones!
Tab Country
Did you know CGR has a sister site w/ country guitar tabs? Well we do! Its called Tab Country. It has a great archive with a lot of country tabs.
Rockin Tabs
Are you looking for a site that has rock guitar tabs? Then Rockintabs.com is the place for you. It is a budding site with many rock guitar tabs. Submit your tab today.
Tab Gallery
Tab Gallery has a compilation of christian, rock, and country tabs all in one place. Come visit us.