Guitar Tabs
song title    band name

Join Us Today!

Don't strum alone...
be a part of the largest online Christian music community. Browse thousands of guitar tabs and chat w/ musicians like yourself.


It's Free!

Thousand Foot Krutch - When In Doubt

This tab has been rated a 0.75 out of 5 for accuracy. (4 votes)Sorry, but you must be logged in to rate this tab.
Click here to log-in, or you can click here to register.
(Registration is free)

All songs owned by corresponding publishing company. If you make copies of any song on this website, be sure to report your usage to CCLI.
Song- When In Doubt 
Band- Thousand Foot Krutch
Album-“Set it Off”
Copyright- 2002 DJD Entertainment
Tabbed by Tim Hofer (hofert_86@hotmail.com)

Key:
/=slide
v=strum
x=mute strum

Standard Tuning:

Intro:
------------------------------------------------------------------------
------------------On-times-2,-5&6-the-second-set-goes:------------------
----7-------------------------------------------------7-7---------------
--7---7------7--------9-------------------------------------------------
55-5-5-5---7---7----9---9----5----------------------7-------------------
---------55-5-5-5-77-7-7-7-33-3333/5--------------55-5-5-5--------------

Riff One:
------------------------------------------------------------------------
------------------------------------------------------------------------
------------------------------------------------------------------------
7775554-7775554-7775554---4445------------------------------------------
-----------------------555----------------------------------------------
--------------------------------------(2 Times-w/ distortion)—----------

Riff Two:
5-5-5-5-5-5-5-5-5-5-5-5-5-5-7-7-7-7-7-7-7-3-3-3-3-3-3-3-----------------
5-5-5-5-5-5-5-5-5-5-5-5-5-5-7-7-7-7-7-7-7-3-3-3-3-3-3-3-----------------
7-7-7-7-7-7-7-6-6-6-6-6-6-6-7-7-7-7-7-7-7-4-4-4-4-4-4-4—(Two-Times)-----
7-7-7-7-7-7-7-7-7-7-7-7-7-7-9-9-9-9-9-9-9-5-5-5-5-5-5-5-(With-Dist.)----
5-5-5-5-5-5-5-7-7-7-7-7-7-7-9-9-9-9-9-9-9-5-5-5-5-5-5-5-----------------
5-5-5-5-5-5-5-5-5-5-5-5-5-5-7-7-7-7-7-7-7-3-3-3-3-3-3-3-----------------
v x x x x v v v x x x x v v v x x x x v v v x x x x v v  


Riff Three:
5-5-5-5-5-5-5-5-5-5-5-5-5-5-5-5-7-7-7-7-7-7-7-7-3-3-3-3-3-3-3-3---------
5-5-5-5-5-5-5-5-5-5-5-5-5-5-5-5-7-7-7-7-7-7-7-7-3-3-3-3-3-3-3-3-(Two)---
7-7-7-7-7-7-7-7-6-6-6-6-6-6-6-6-7-7-7-7-7-7-7-7-4-4-4-4-4-4-4-4-(Times)-
7-7-7-7-7-7-7-7-7-7-7-7-7-7-7-7-9-9-9-9-9-9-9-9-5-5-5-5-5-5-5-5-(With)--
5-5-5-5-5-5-5-5-7-7-7-7-7-7-7-7-9-9-9-9-9-9-9-9-5-5-5-5-5-5-5-5-(Dist.)-
5-5-5-5-5-5-5-5-5-5-5-5-5-5-5-5-7-7-7-7-7-7-7-7-3-3-3-3-3-3-3-3---------
v v v v v v v v v v v v v v v v v v v v v v v v v v v v v v v v

Chorus:
5-5-5-5-5-5-5-5-5-5-5-5-5-5-5-5-5-5-7-7-7-7-7-7-7-7-7-3--3--------------
5-5-5-5-5-5-5-5-5-5-5-5-5-5-5-5-5-5-7-7-7-7-7-7-7-7-7-3--3-(Two Times)--
7-7-7-7-7-7-7-7-7-6-6-6-6-6-6-6-6-6-7-7-7-7-7-7-7-7-7-4--4-(With-Heavy)-
7-7-7-7-7-7-7-7-7-7-7-7-7-7-7-7-7-7-9-9-9-9-9-9-9-9-9-5--5-(Distortion)-
5-5-5-5-5-5-5-5-5-7-7-7-7-7-7-7-7-7-9-9-9-9-9-9-9-9-9-5--5--------------
5-5-5-5-5-5-5-5-5-5-5-5-5-5-5-5-5-5-7-7-7-7-7-7-7-7-7-3--3--------------
v x x v x v x v v v x x v x v x v v v x x v x v x v v v  v


“Riff One”

-----------------------------------5------------------------------------
-----------------------------------5------------------------------------
-----------------------------------7------------------------------------
7-(let this note ring for a while)-7-(Let this Chord Ring for a while)--
-----------------------------------5------------------------------------
-----------------------------------5-(Listen to the CD)-----------------

------------------------------------------------------------------------
------------------------------------------------------------------------
------------------------------------------------------------------------
7777777777777-55544-45--------(Really Fast Here)------------------------
------------------------------------------------------------------------
---------------------------------------(3 Times w/ distortion)----------

------------------------------------------------------------------------
------------------------------------------------------------------------
------------------------------------------------------------------------
7777777777777-77777777777777777-(“7” many times I’m unsure of how many--
---------------------------------but you will be able to tell when to --
---------------------------------go on)---------------------------------

“Riff Three”   (But slower…or, play it the same speed, just 16 times for 
each chord instead of 8.
“Chorus”
“Riff One”

5-5-5-5-5-5-5-5-5-5-5-5-5-5-7-7-7-7-7-7-7-3-3-3-3-3-3-3-----------------
5-5-5-5-5-5-5-5-5-5-5-5-5-5-7-7-7-7-7-7-7-3-3-3-3-3-3-3-----------------
7-7-7-7-7-7-7-6-6-6-6-6-6-6-7-7-7-7-7-7-7-4-4-4-4-4-4-4—(Once)----------
7-7-7-7-7-7-7-7-7-7-7-7-7-7-9-9-9-9-9-9-9-5-5-5-5-5-5-5-(With-Dist.)----
5-5-5-5-5-5-5-7-7-7-7-7-7-7-9-9-9-9-9-9-9-5-5-5-5-5-5-5-----------------
5-5-5-5-5-5-5-5-5-5-5-5-5-5-7-7-7-7-7-7-7-3-3-3-3-3-3-3-----------------
v x x x x v v v x x x x v v v x x x x v v v x x x x v v  

5-5-5-5-5-5-5-5-5-5-5-5-5-5-7-7-7-7-7-7-7-3-3-3-3/5-5-------------------
5-5-5-5-5-5-5-5-5-5-5-5-5-5-7-7-7-7-7-7-7-3-3-3-3/5-5-------------------
7-7-7-7-7-7-7-6-6-6-6-6-6-6-7-7-7-7-7-7-7-4-4-4—4/6-7-----(Once)--------
7-7-7-7-7-7-7-7-7-7-7-7-7-7-9-9-9-9-9-9-9-5-5-5-5/7-7-----(With-Dist.)--
5-5-5-5-5-5-5-7-7-7-7-7-7-7-9-9-9-9-9-9-9-5-5-5-5/7-5-------------------
5-5-5-5-5-5-5-5-5-5-5-5-5-5-7-7-7-7-7-7-7-3-3-3-3/5-5-------------------
v x x x x v v v x x x x v v v x x x x v v v v v v v v  

Comments about this tab

Tyran001 - 2005-04-05

the really fast partgoes like this;
e>--------------------------------------------------
B>--------------------------------------------------
G>--------------------------------------------------
D>--7(x16)--545/7-7(x16)--545/7-7(x16)--545/7-7(x32)
A>--------------------------------------------------
E>--------------------------------------------------

then it goes right back to the chorus. just make sure you hit the 16th A harder than the rest, only not on the 32 time thing. great tab though! Rock On!!!


akaukal - 2006-03-28

dude, they're not full chords like ur using, they're power chords.


Dani_Boy - 2006-04-17

I haven't heard this song, but I think I can agree with akaukal. Almost every TFK song (Except This Is A Call and other really calm ones) uses powerchords with some small additions at times. Full chords don't sound as heavy and precise on electric guitar. They are sweet on acoustic though.


Add a comment/correction

Complimentary Christian Ringtones
Dadamobile and CGR have teamed up to bring your favorite Christian artists right to your phone. Sign up today and get 10 complementary ringtones!
Tab Country
Did you know CGR has a sister site w/ country guitar tabs? Well we do! Its called Tab Country. It has a great archive with a lot of country tabs.
Rockin Tabs
Are you looking for a site that has rock guitar tabs? Then Rockintabs.com is the place for you. It is a budding site with many rock guitar tabs. Submit your tab today.
Tab Gallery
Tab Gallery has a compilation of christian, rock, and country tabs all in one place. Come visit us.