Guitar Tabs
song title    band name

Join Us Today!

Don't strum alone...
be a part of the largest online Christian music community. Browse thousands of guitar tabs and chat w/ musicians like yourself.


It's Free!

Delirious - My Glorious

This tab has been rated a 2.00 out of 5 for accuracy. (5 votes)Sorry, but you must be logged in to rate this tab.
Click here to log-in, or you can click here to register.
(Registration is free)

All songs owned by corresponding publishing company. If you make copies of any song on this website, be sure to report your usage to CCLI.
Title | My Glorious
Artist| Delirious 
Label | Furious\Sparrow Records
tabbed by D-Boy  darkwingduck@zjam.net
this one's for u Trav!

Intro:

  e-------------------|----------------------------]
  B-------------------|----------------------------]
  G-------9-9--xxxxxx-|---7-7-7--xxx--7/6----------] X2
  D-------9-9--xxxxxx-|X2-7-7-7--xxx--7/6--9-99-xx-]
  A-------7-7--xxxxxx-|---5-5-5--xxx--5/4--9-99-xx-]
  E-0h2-2------xxxxxx-|----------xxx-------7-77-xx-]
   

  Verse:
      the verse is just bass

   Pre-Chorus:  listen for chord changes

    ------------------
    ------------------
    -7--6--4--444----- 
    -7--6--4--444-----
    -5--4--2--222-----
    ------------------

    Chorus  pt 1:

    -----------------
    -----------------
    -------------9---
    -7---6---4---9---
    -7---7---4---7---
    -5---4---2-------


     Intro
    
     Verse

     Pre-Chorus
 
     Chorus pt 1

     Chorus pt 2:

     -------------
     -------------
     --7-7-\-9-9--  X however many times it is
     --7-7-\-9-9--
     --5-5-\-7-7--
     -------------   
   
     the high guitar part that leads into the solo:

     e-----------
     B-10-9-7-5--

    Solo:
     note:  the bend is oly about a half bend or less
    e-----------------------------------------
    B--/14--10-14-12---/17-17--17-15-14b-12---

    e-------------------------------------------
    B--/long slide/14--10-14-12--/17--14-17-17/19-19-17-19/21-(let ring)

    Chorus pt 2 X2

    Chorus pt 1 w/ just drums and this riff every so often:
    
     A-------------- 
     E-0h2-2--2-0-2-

     Chorus pt 2 X3 or 4 or maybe even 5, it just kinda keeps going 

     That's all Folks!

    this is a great worship song,  so use it for your worship teams!!
    if u have any corrections or any thing else,  give me an e-mail!!
    Bye and God Bless!! -D-Boy
 
    
    

Comments about this tab

panhead777 - 2006-12-19

theres no comments so i felt i should put one

great tab one my favorite worship songz


Add a comment/correction

Complimentary Christian Ringtones
Dadamobile and CGR have teamed up to bring your favorite Christian artists right to your phone. Sign up today and get 10 complementary ringtones!
Tab Country
Did you know CGR has a sister site w/ country guitar tabs? Well we do! Its called Tab Country. It has a great archive with a lot of country tabs.
Rockin Tabs
Are you looking for a site that has rock guitar tabs? Then Rockintabs.com is the place for you. It is a budding site with many rock guitar tabs. Submit your tab today.
Tab Gallery
Tab Gallery has a compilation of christian, rock, and country tabs all in one place. Come visit us.