Guitar Tabs
song title    band name

Join Us Today!

Don't strum alone...
be a part of the largest online Christian music community. Browse thousands of guitar tabs and chat w/ musicians like yourself.


It's Free!

Five Iron Frenzy - Car

This tab has been rated a 4.00 out of 5 for accuracy. (2 votes)Sorry, but you must be logged in to rate this tab.
Click here to log-in, or you can click here to register.
(Registration is free)

All songs owned by corresponding publishing company. If you make copies of any song on this website, be sure to report your usage to CCLI.
Artist: Five Iron Frenzy
Title: Car
Album: Five Iron Frenzy 2: Electric Boogaloo
Tabbed by: Kris Kircher
Checked by: Micah Ortega
Email: kkircher@tampabay.rr.com

Any questions/comments, feel free to e-mail me.  This took a lot of listening
to figure out. Try and follow along.  it's not that hard.  Besides Blue Mix,
this is my favorite to play b/c of the 5/4 time.  I tried to write this out
as friendly as possible. So enjoy the tab.

Intro
|------|------------------------------|
|------|o----------------------------o|
|------|------------------------------|
|--6-7-|---------66-----------66-77---|
|--4-5-|o--4444--44-66--7777--44-55--o|
|------|---2222-----44--5555----------|repeat 4x

Octaves
|-------------------|----------------------|
|o------------------|---------------------o|
|---11--10--09--08--|--11--10--09--13-14---|
|-------------------|----------------------|
|o--09--08--07--06--|--09--08--07--11-12--o|
|-------------------|----------------------|repeat 2x


Verses
|-----------------------------|-----------------------------|
|-----------------------------|-----------------------------|
|-----------------------------|-----------------------------|
|-------------6-7777-7-66-76--|-------------6-7777-7-99-76--|
|--9999-9-88-9----------------|--9999-9-88-9----------------|
|-----------------------------|-----------------------------|repeat 2x

Pre-Chorus
|---------------------|---------------------|
|o--------------------|--------------------o|
|---------------------|---------------------|
|-----------------77--|-----------7777-99---|
|o--9999-77--5555-55--|--9999-44--5555-77--o|
|---7777-55--3333-----|--7777-22------------|repeat 2x

chorus
|----------------------------|-------------------|--------------|
|----------------------------|-------------------|--------------|
|----------------------------|-------------------|--------------|
|----------------------------|-------------------|---------9-6--|
|--7-/-2--4--11--7--9--9-12--|--7-/-2--4--11--7--|----9---------|
|--5-/-0--2--09--5--7--7-10--|--5-/-0--2--09--5--|--7---10------|

Octaves
Verses
Pre-Chorus
Chorus
Chorus

Bridge - each note is played more than once. you're going to have to listen to
get the right rhythm.
|------------------------------------------------------------------|
|------------------------------------------------------------------|
|------------------------------------------------------------------|
|--9--11--12--11--7--11--9--11--7--11--9--11--12--11--7--11--9--7--|
|------------------------------------------------------------------|
|------------------------------------------------------------------|

Bridge Chords(Guitar 2)
|-----------------------------------|
|-----------------------------------|
|--9--------------------------------|
|--7---------------7----------------|
|------------------5----------------|
One who travels knows too well
|-----------------------------------|
|-----------------------------------|
|-----------------------------------|
|--4-----------------------6-----7--|
|--2-----------------------4-----5--|
the panicked call from the truck stop
|-----------------------------------|
|-----------------------------------|
|--9--------------------------------|
|--7---------------7----------------|
|------------------5----------------|
I held tight to the phone booth
|-----------------------------------|
|-----------------------------------|
|-----------------------------------|
|--4-----------------------6-----7--|
|--2-----------------------4-----5--|
envisioning last night and Car?s last mountain drive


Even More Bridge Work(u'd think i was @ the dentist)
|-----------------------------|------------------------------|
|-----------------------------|------------------------------|
|-----------------------------|------------------------------|
|------------66-7777-7-66-77--|------------66-7777-7--6-7----|
|--9999-9-88------------------|--9999-9-88------------4-5-7--|
|-----------------------------|---------------------------5--|

|-----------------------------|------------------------------|
|-----------------------------|------------------------------|
|-----------------------------|------------------------------|
|------------66-7777-7-66-77--|------------66-7777-7--6-7----|
|--9999-9-88------------------|--9999-9-88------------4-5-9--|
|-----------------------------|---------------------------7--|

Chorus
Chorus

End On
|--------------|-----------|-----------------|
|--------------|-----------|-----------------|
|--------------|-----------|-----------------|
|---------9--6-|-------0---|---------9--6----|
|----9---------|---4-----4-|----9---------4--|
|--7---10------|-2---5-----|--7---10------2--|

Comments about this tab

No comments/corrections found. Add your own

Complimentary Christian Ringtones
Dadamobile and CGR have teamed up to bring your favorite Christian artists right to your phone. Sign up today and get 10 complementary ringtones!
Tab Country
Did you know CGR has a sister site w/ country guitar tabs? Well we do! Its called Tab Country. It has a great archive with a lot of country tabs.
Rockin Tabs
Are you looking for a site that has rock guitar tabs? Then Rockintabs.com is the place for you. It is a budding site with many rock guitar tabs. Submit your tab today.
Tab Gallery
Tab Gallery has a compilation of christian, rock, and country tabs all in one place. Come visit us.