Guitar Tabs
song title    band name

Join Us Today!

Don't strum alone...
be a part of the largest online Christian music community. Browse thousands of guitar tabs and chat w/ musicians like yourself.


It's Free!

David Crowder Band, The - Undignified

This tab has been rated a 3.25 out of 5 for accuracy. (4 votes)Sorry, but you must be logged in to rate this tab.
Click here to log-in, or you can click here to register.
(Registration is free)

All songs owned by corresponding publishing company. If you make copies of any song on this website, be sure to report your usage to CCLI.
Undignified
David Crowder Band

This is a little solo david crowder does in his song Undignified, the solo
comes at 2:16 of the song, it took me couple seconds to figure it out,
enjoy :)
any comments or if u need any tabs for me to work on email me at
churchboi604@ilovechocolate.com or IM me at kpxmikey89 on AiM

e--7---5---4---2--0----------------------------------------------
B----5---5---5---5-5--5-5--5/7--5--4-5---------------------------
G----------------------------------------------------------------
D----------------------------------------------------------------
A----------------------------------------------------------------
E----------------------------------------------------------------

Comments about this tab

christiabassman - 2004-07-11

its easier to do it all on one string

e--7--0--5--0--4--2--0-0-0-0-0--0/2--------
B------------------------------------5--4-5
G------------------------------------------
D------------------------------------------
A------------------------------------------
E------------------------------------------


resister576 - 2004-12-01

I too think its easier on one string but try it like this. This is how I play it in my praise band. Enjoy!

e--0-7--0--5--0--4--2--0---------------------
B-------------------------4-5-4-5-4-5-4-5-0--
G--------------------------------------------
D--------------------------------------------
A--------------------------------------------
E--------------------------------------------


x_pal - 2005-09-08

This is how I play the solo in Undignified:

e-7-0-5-0-4-0-2-0-----0----0-----------------
B------------------4----2-----0--------------
G--------------------------------------------
D--------------------------------2-----------
A-----------------------------------2--------
E--------------------------------------------


Add a comment/correction

Complimentary Christian Ringtones
Dadamobile and CGR have teamed up to bring your favorite Christian artists right to your phone. Sign up today and get 10 complementary ringtones!
Tab Country
Did you know CGR has a sister site w/ country guitar tabs? Well we do! Its called Tab Country. It has a great archive with a lot of country tabs.
Rockin Tabs
Are you looking for a site that has rock guitar tabs? Then Rockintabs.com is the place for you. It is a budding site with many rock guitar tabs. Submit your tab today.
Tab Gallery
Tab Gallery has a compilation of christian, rock, and country tabs all in one place. Come visit us.