Guitar Tabs
song title    band name

Join Us Today!

Don't strum alone...
be a part of the largest online Christian music community. Browse thousands of guitar tabs and chat w/ musicians like yourself.


It's Free!

Chapman, Steven Curtis - Rubber Meets the Road

This tab has not yet been rated for accuracy.Sorry, but you must be logged in to rate this tab.
Click here to log-in, or you can click here to register.
(Registration is free)

All songs owned by corresponding publishing company. If you make copies of any song on this website, be sure to report your usage to CCLI.
Rubber Meets The Road
Steven Curtis Chapman
From Signs of Life (Sparrow Records 1996)

If you listen to the record most of the riffs are just messing around with
variations of the Blues scale.. so its pretty simple
Any corrections or comments please email me Awzmgd117@aol.com or if you know
the rest of it i'd appreciate it thanks.
on to the song....

e------------------------------------------------------------------------------
b------------------------------------------------------------------------------
G-----------5---------7---5----------------------------------------------------
D-----5--7-----7--5---7---5----------------------------------------------------
A---7-------------------------7---5---3---0------------------------------------
E------------------------------------------------------------------------------

e-----------------------------5------------------------------------------------
b-----------------------------5------------------------------------------------
G-----------5---------7---5-------8--7--5--------------------------------------
D-----5--7-----7--5---7---5----------------7-----------------------------------
A---7--------------------------------------------------------------------------
E------------------------------------------------------------------------------

Thats the genera idea and then he just plays varitions on that, like said any
comments or corrections email me.
God Bless
Golden Grahams rule

Comments about this tab

No comments/corrections found. Add your own

Complimentary Christian Ringtones
Dadamobile and CGR have teamed up to bring your favorite Christian artists right to your phone. Sign up today and get 10 complementary ringtones!
Tab Country
Did you know CGR has a sister site w/ country guitar tabs? Well we do! Its called Tab Country. It has a great archive with a lot of country tabs.
Rockin Tabs
Are you looking for a site that has rock guitar tabs? Then Rockintabs.com is the place for you. It is a budding site with many rock guitar tabs. Submit your tab today.
Tab Gallery
Tab Gallery has a compilation of christian, rock, and country tabs all in one place. Come visit us.