Guitar Tabs
song title    band name

Join Us Today!

Don't strum alone...
be a part of the largest online Christian music community. Browse thousands of guitar tabs and chat w/ musicians like yourself.


It's Free!

tobyMac - Extreme Days

This tab has been rated a 4.67 out of 5 for accuracy. (3 votes)Sorry, but you must be logged in to rate this tab.
Click here to log-in, or you can click here to register.
(Registration is free)

All songs owned by corresponding publishing company. If you make copies of any song on this website, be sure to report your usage to CCLI.
Extreme Days - tobyMac

Ok, I'm not sure if this song is D-tuned or if you drop it to a C. So...you
can try each and pick which one it is.  Sorry. Alright, here we go!

Intro

D|-0--3---5/6---5---3---0-------0-----|
A|-0--3---5/6---5---3---0-------0-----| Repeat that a few times
D|-0--3---5/6---5---3---0-------0-----| Then...

End the intro with
D|----0~~~------|
A|----0~~~------|
D|----0~~~------|

Now I'm not sure what exacly the verse is but it's something like this...
D|----0---0-0---3--0--0--0----------------0--0-0--3--0--0--0------6~~---|
A|----0---0-0---3--0--0--0---(Pause)------0--0-0--3--0--0--0------6~~---|
D|----0---0-0---3--0--0--0----------------0--0-0--3--0--0--0------6~~---|

It's hard to tab it out, you'll just have to listen to the song over and
over again. Dont let those chords "ring" or keep going, you have to
stop them for the right sound. hit the chord then stop the strings. This is
really hard to describe, if this doesn't make sense, listen to the song. If
that doesn't help email and I'll send you a little mp3 sample of how to play
it. 

Verse 2
D|---0---3---0---3---0---3---0---3-----------------------|
A|---0---3---0---3---0---3---0---3----(Pause)------------|
D|---0---3---0---3---0---3---0---3-----------------------|

Later on 
D|---0---3---0---3---0---3---0---3-----5---6----|
A|---0---3---0---3---0---3---0---3-----5---6----|
D|---0---3---0---3---0---3---0---3-----5---6----|

Play the verse again.

-Chorus-

D|---0----6----5----3---x-x-x---|
A|---0----6----5----3---x-x-x---| Play three times then
D|---0----6----5----3---x-x-x---|

D|---0---3---0---3---0---3---0---3-----5---6----|
A|---0---3---0---3---0---3---0---3-----5---6----|
D|---0---3---0---3---0---3---0---3-----5---6----|

-verse-
-Chorus-

Bridge (slower part)
D|-------4---5---4-----------|
A|---2------------------1/---|
D|---------------------------|

Repete a few times.
then
D|---0---3---0---3---0---3---0---3-----5---6----|
A|---0---3---0---3---0---3---0---3-----5---6----|
D|---0---3---0---3---0---3---0---3-----5---6----|

chorus
(last time for the chorus I play the intro, just cuz it sounds cooler)
(But I dont think that's what they play)

Ok, please take note I'm doing this in a cafe without a guitar.
If I messed up I'll re-write the tab. Email me if you have any questions.
kyleh1@mac.com

Peace

Kyle

Comments about this tab

ChurchPunk 2 - 2005-03-11

Great Job! Someone needs to tab 'THe Slam"; that song rocks!


Add a comment/correction

Complimentary Christian Ringtones
Dadamobile and CGR have teamed up to bring your favorite Christian artists right to your phone. Sign up today and get 10 complementary ringtones!
Tab Country
Did you know CGR has a sister site w/ country guitar tabs? Well we do! Its called Tab Country. It has a great archive with a lot of country tabs.
Rockin Tabs
Are you looking for a site that has rock guitar tabs? Then Rockintabs.com is the place for you. It is a budding site with many rock guitar tabs. Submit your tab today.
Tab Gallery
Tab Gallery has a compilation of christian, rock, and country tabs all in one place. Come visit us.