Guitar Tabs
song title    band name

Join Us Today!

Don't strum alone...
be a part of the largest online Christian music community. Browse thousands of guitar tabs and chat w/ musicians like yourself.


It's Free!

Newsboys - Breakfast

This tab has been rated a 4.60 out of 5 for accuracy. (10 votes)Sorry, but you must be logged in to rate this tab.
Click here to log-in, or you can click here to register.
(Registration is free)

All songs owned by corresponding publishing company. If you make copies of any song on this website, be sure to report your usage to CCLI.
Breakfast
Newsboys

Intro: x4

e---------------------
B---------------------
G---4---4---4---9---9-
D--2---2---2---7---7--
A---------------------
E---------------------

 Verse Part 1: x4

e-----------------------------------------
B-----------------------------------------
G---------------------------4--4----------
D---6---6---6---6---6---6--2--2---4--4--4-
A--4---4---4---4---4---4---------2--2--2--
E-----------------------------------------

 Verse Part 2: x4

e---------------------------------
B---------------------------------
G---6--6--6--6--6---------9--9--9-
D--4--4--4--4--4---9--9--7--7--7--
A-----------------7--7------------
E---------------------------------

 Chorus: x2

e------------------------------------------------------------
B------------------------------------------------------------
G--2222--------------------------2222-----------4444-4444-44-
D--OOOO--2222-22-----------------OOOO--2222-22--2222-2222-22-
A--------OOOO-OO--2222--4444-44--------OOOO-OO---------------
E-----------------OOOO--2222-22------------------------------

 Repeat from Verse Part 1

 Bridge: x8

e-----------------
B-----------------
G---4--4--4--9--9-
D--2--2--2--7--7--
A-----------------
E-----------------

 Chorus: x7    

 And that's it!!! Tabbed by: Erick Cole

Comments about this tab

Jesusguitar9 - 2004-01-14

well done. you are one of the few people that didn't tab it up an octave. their's were right, but i an aukward spot. yours gives the right octave AND a good spot on the neck.

Abbey*
(Jesusguitar9)


yavapine_e_bass - 2004-08-10

awesome! 5/5 for accuracy


jamforchrist123 - 2005-02-09

It Sounds Pretty Much The Same But I Play It Like This:

E]-----------------
B]-----------------
G]-----------------
D]-----------------
A]---2--2--2---7-7-
E]--0--0--0---5----


Spike_Kaplin - 2005-04-20

Hey Bro, AWESOME Job! I'm impressed... many places didn't have it right. take care and keep tabbing :)


winston856 - 2005-04-20

Very nice, very nicely done. Simple, just like the song is :)


inhimalways - 2006-01-25

Hey bro, nice tabb, but I personally play the verse diff on my guitar, it sound more accurate on mine but its... but my prefrence for my guitar
E-----------------------------------------
A--4---4---4---4---4-4---7--7---2--2---2-2
D---6---6---6---6--6-6----9--9---4--4--4-4
G-----------------------------------------
B-----------------------------------------
e-----------------------------------------


Add a comment/correction

Complimentary Christian Ringtones
Dadamobile and CGR have teamed up to bring your favorite Christian artists right to your phone. Sign up today and get 10 complementary ringtones!
Tab Country
Did you know CGR has a sister site w/ country guitar tabs? Well we do! Its called Tab Country. It has a great archive with a lot of country tabs.
Rockin Tabs
Are you looking for a site that has rock guitar tabs? Then Rockintabs.com is the place for you. It is a budding site with many rock guitar tabs. Submit your tab today.
Tab Gallery
Tab Gallery has a compilation of christian, rock, and country tabs all in one place. Come visit us.