Guitar Tabs
song title    band name

Join Us Today!

Don't strum alone...
be a part of the largest online Christian music community. Browse thousands of guitar tabs and chat w/ musicians like yourself.


It's Free!

Supertones, The - Go Your Way

This tab has been rated a 4.00 out of 5 for accuracy. (2 votes)Sorry, but you must be logged in to rate this tab.
Click here to log-in, or you can click here to register.
(Registration is free)

All songs owned by corresponding publishing company. If you make copies of any song on this website, be sure to report your usage to CCLI.
OC supertones
Go your way
Album :Hi-Fi Revival

this is a great song, and I figured it out pretty quickly.Feel free to
Correct it if it's wrong.


Intro X2 (Really fast downstrokes!)At the beginning Ethan like plays the 
strings behind the bridge to give it that high pitched sound then he
plays regular. I don't know how many beats they're are to each chord, 
so I'll just write each of em once

E---------------------12---10-----9----------------------
B---------------------12---10-----10---------------------
G--------------------------------------------------------
D--------------------------------------------------------
A--------------------------------------------------------
E--------------------------------------------------------

after intro (power chords)

E----------------------------------
B----------------------------------
G----9-----7-----------------------
D----9-----7-----7-----------------
A----7-----5-----7-----------------
E----------------5-----------------

verse (palm mute)

E----------------------------------
B----------------------------------
G---9-----7-----------7------------
D---9-----7-----7-----7------------ repeat X4 I think, but on the 2nd and 4th 
A---7-----5-----7-----5------------ times, play the last E5 open
E---------------5------------------

Chorus (I think this is how it goes. I could be wrong)

E--------------------------------------
B--------------------------------------
G---5------7---------------------------
D---5------7-----7------11----9----7---
A---7------5-----7------11----9----7---
E----------------5------9-----7----5---

Sorry, but I'm still workin on the solo!

verse to small bridge (same as verse, except all palm mute, cause like
all the instruments drop out.


Hope you like it! Rock on!

Comments about this tab

No comments/corrections found. Add your own

Complimentary Christian Ringtones
Dadamobile and CGR have teamed up to bring your favorite Christian artists right to your phone. Sign up today and get 10 complementary ringtones!
Tab Country
Did you know CGR has a sister site w/ country guitar tabs? Well we do! Its called Tab Country. It has a great archive with a lot of country tabs.
Rockin Tabs
Are you looking for a site that has rock guitar tabs? Then Rockintabs.com is the place for you. It is a budding site with many rock guitar tabs. Submit your tab today.
Tab Gallery
Tab Gallery has a compilation of christian, rock, and country tabs all in one place. Come visit us.