Guitar Tabs
song title    band name

Join Us Today!

Don't strum alone...
be a part of the largest online Christian music community. Browse thousands of guitar tabs and chat w/ musicians like yourself.


It's Free!

This tab has been rated a 4.68 out of 5 for accuracy. (19 votes)Sorry, but you must be logged in to rate this tab.
Click here to log-in, or you can click here to register.
(Registration is free)

All songs owned by corresponding publishing company. If you make copies of any song on this website, be sure to report your usage to CCLI.
Beautiful One
Tim Hughes

Verse 1:
G A D/F#
G A Bm7
G A D/F#
G A D

Chorus:
G A
G A
G A D

Verse 2:
G A D/F#
G A Bm7
G A D/F#
G A D

Bridge:
G A
G A
G A D
G A 
G A
G A D

Coda:
G A
Bm A/C#
G A
D


Order:
Verse 1
Chorus
Verse 2
Chorus
Bridge
Chorus x2
Coda x2
Chorus a few more times.

Comments about this tab

siskmen - 2004-03-02

add words


siskmen - 2004-03-03

find words


spmantar - 2004-03-20

Lyrics are not allowed on CGR. However, some other archives out there have lyrics. Go find them! :)


david abraham - 2004-08-12

ADD LYRICS PLEASE>>>NOW I HAVE TO GO LOOK UP THE LRYICS AND READ THEM SEPERATELY!!!!! AHAAAAHAHHHHHHHHHH


dschroeder - 2004-09-20

The lyrics can be found at By The Tree's website.


rcman - 2004-12-20

Those are almost the correct chords!!! I can't saw anyhting because that is illegal!!


jc-16 - 2005-01-09

good job that was perfect;-)


rkdude88 - 2005-01-17

where can u get lyrics


fire_worship - 2005-01-20

No there are no lyrics on By the Trees website I already checked it out. But thanx for trying to help.


8thdayworship - 2005-01-27

you can find the lyrics at www.Timhughesmusic.com


N2HiMguitar33 - 2005-02-13

go to jeremycamp.com, click on tunes, choose carried me, then Beautiful One for lyrics.


stryperfan - 2005-02-15

ok you are really really close on the chords

here is what they actually are:
G A D
G A Bm7
G A D/F#
G A D

Chorus:
G A
G A
G A D

Verse 2:
G A D
G A Bm7
G A D/F#
G A D

Bridge:
G A
G A
G A D
G A
G A
G A D

Coda:
G A
Bm A
G A
D


you were really close its was just stuff like the d/f# is only in there a few times the others times it is just plain d. also there is no A/c# just A. great job though

God bless


oliolioli - 2005-03-22

Erm anybody listened to Tim hughes latest album with this song. Any figure out the intro.


guitar_pic - 2005-04-30

Hi, can anyone figure out the intro tab for the song? thanks!


rockin'4God21 - 2005-06-04

Sweet tab dude thanx


Basshammer2000 - 2005-08-02

Sweet but can i get a tab instead


ACMagape - 2005-08-13

Here is the Intro:

e------------5---------------5-7--------
B------7-------7-------7----------------
G----7---7-------7---7---7-------7------
D--5-------5-------7-------7------------
A---------------------------------------
E---------------------------------------

listen to the song to get the rythym down.


ACMagape - 2005-08-13

e------------5---------------5-7--------||
B------7-------7------------------------||
G----7---7-------7---6-5-6-------7------||
D--5-------5-------7-------7--------repeat
A---------------------------------------||
E---------------------------------------||

sorry. this is the right one. good luck.


g_tarplaya - 2005-08-18

actually its realli like this to make it more cooler use a delay a good one and also a EQ boss
thats intro
/ slide frum the 1st fret

e------------5--------------7---------||
B------7-------7------10 ----10---------------||
G----7---7--------------9--------------||
D--/5--------------7---------------repeat
A---------------------------------------||
E---------------------------------------||

chorus i do this

e--x--x--x--x--x--x--x--x-------
B--8-8-8-8-10-10-10-10-----------------
G--7-7-7-7-9--9--9--9----------
D--5-5-5-5-7--7--7--7-------------
A--x-x-x-x-x--x--x--x----
E--x-x-x-x-x--x--x--x-

the last part when he says beautiful one!

end on this

e--------------
B--------------
G-15-15-15-15---------
D-14-14-14-14--------
A-12-12-12-12---------
E-------------


smurphy - 2005-09-26

g_tarplaya yr tab is wrong for the intro but sounds fine for the verse riff


smurphy - 2005-09-26

sorry its not write for the verse but really good effort


Basshammer2000 - 2005-10-01

Thanks for the tab


Basshammer2000 - 2005-10-01

but what cd is this on


g_tarplaya - 2005-11-08

its on when the tears fall or silence falls bleh its not the guitar i tabbed out its the electric guitar if u listen to it carefully......


emily_williams - 2006-01-10

Lyrics:
Wonderful, so wonderful

Is Your unfailing love

Your cross has spoken mercy over me

No eye has seen, no ear has heard

No heart could fully know

How glorious, how beautiful you are!



Beautiful One I love

Beautiful One I adore

Beautiful One my soul must sing



Powerful, so powerful

Your glory fills the skies

Your mighty works displayed for all to see

The beauty of Your majesty

Awakes my heart to sing

How marvellous, how wonderful You are



You opened my eyes to Your wonders anew

You captured my heart with this love

Because nothing on earth is as beautiful as You



My soul, my soul must sing

My soul, my soul must sing

My soul, my soul must sing

Beautiful One



copyright 2002 Thankyou Music/MCPS


emily_williams - 2006-01-10

www.letssingit.com has a lot of lyrics.


Andreas107 - 2006-01-25

How 'bout this...? :)


Beautiful One by Tim Hughes


VERSE 1:
G A
Wonderful, So Wonderful
D/F#
Is Your Unfailing Love,
G A Bm7
Your cross has spoken mercy over me

G A
No eye has seen, no ear has heard
D/F#
No heart could fully know,
G A D
How glorious, how beautiful You are

CHORUS:
G A
Beautiful One, I love You
G A
Beautiful One, I adore
G A D
Beautiful One my soul must sing

VERSE 2:
Powerful, so Powerful
Your glory fills the skies
Your mighty works displayed for all to see

The beauty of Your majesty
Awakes my heart to sing;
How marvelous, How wonderful You are

BRIDGE:
G A
You've opened my eyes to Your wonders anew
G A
You captured my heart with this love
G A D
'Cos nothing on earth is as beautiful as You

CODA:
G A
My soul, my soul must sing
Bm A/C#
My soul, my soul must sing
G A
My soul, my soul must sing
D
Beautiful One


emc5133 - 2006-02-05

The intro is much trickier to play than it sounds. The tabs posted here are close, but after many hours of listening and analysis, I think I've got it nailed. The key is to capo at the 7th fret. The following tab is relative to Capo at 7:

e----------------------------|-------------------------------
B---------0--------3--0------|------------------3--5---------
G------------0-----------0---|---------0--------------0------
D------2--------2------------|------4-----4------------------
A---3------------------------|---5-----------5---------------
E----------------------------|------------------------------- etc.

So you've got a Gmaj7 Gmaj9 to Aadd4 Aadd9 thing happening. Try it and see what you think.

Enjoy!
Elias Collas


jahite - 2006-06-17

That looks great, but there's a little bit after that comes right after "The cross has spoken mercy over me"

e----------------------------|--------------------------
B---------0--------3---------|---3-------0------3--0----
G-------0----0--------0------|-----0-------0------------
D----2----------4-------4----|-------4-------4----------
A----------------------------|--------------------------
E----------------------------|--------------------------


friend.of.god - 2007-03-20

Thx for the tabs. I found a great website. www.christian-lyrics.net
its just like this site, but only lyrics. the songs are even catagorized by album under the artist! Check it out.


tjlee87 - 2007-05-14

here is how i do intro
G A Bm A/C# G A D
E-------------------------------------5-5---3-----5-5-------0------
B-----3-------3-2-------3-3-2-----------------------------3---3----
G-------0-------------4-------2-----2---------0---------2----------
D-------------------4-------------2-------------------0----------0-
A---------0-------2-------------4---------------0------------------
E-3---------------------------------------3------------------------

and all you have to do after "..mercy over me" is hold on Bm chord on the 7th fret
(799777) and play
-----------7-----
-------7-----7---
-----7---7-----7-
---9-------------
-----------------
-7---------------

and all you have to on "..no heart could fully know" is hold on D chord and play
-2---0-------
---3---3---3-
---------2---
-------------
-------------
-------------

although they probably didnt play like this, but it seems alot easier when u make tabs based on chords


timmywasere - 2010-01-10

The intro for the Live in London version of this song goes like this;
G C* D E

In Higher octave power chord;

G= X,20,19,17,X,X
C*=X,14,13,11,X,X
D=X,15,14,12,X,X
E=X,17,16,14,X,X

(the star after the c -C*- Means C sharp)


Add a comment/correction

Complimentary Christian Ringtones
Dadamobile and CGR have teamed up to bring your favorite Christian artists right to your phone. Sign up today and get 10 complementary ringtones!
Tab Country
Did you know CGR has a sister site w/ country guitar tabs? Well we do! Its called Tab Country. It has a great archive with a lot of country tabs.
Rockin Tabs
Are you looking for a site that has rock guitar tabs? Then Rockintabs.com is the place for you. It is a budding site with many rock guitar tabs. Submit your tab today.
Tab Gallery
Tab Gallery has a compilation of christian, rock, and country tabs all in one place. Come visit us.