Guitar Tabs
song title    band name

Join Us Today!

Don't strum alone...
be a part of the largest online Christian music community. Browse thousands of guitar tabs and chat w/ musicians like yourself.


It's Free!

Thousand Foot Krutch - When In Doubt

This tab has been rated a 3.78 out of 5 for accuracy. (9 votes)Sorry, but you must be logged in to rate this tab.
Click here to log-in, or you can click here to register.
(Registration is free)

All songs owned by corresponding publishing company. If you make copies of any song on this website, be sure to report your usage to CCLI.
Song: When In Doubt (just the intro)
Band: Thousand Foot Krutch
Album: Set It Off
Copyright: 2000 DJD Entertainment
Tabbed by: Danno

I've noticed that none of the tabs for this song have the correct intro.
It changes the second time it is played.  Just listen to the song and
you'll hear what I mean.  These guys are really awesome.  This is one of
my favorite songs.
Regular tuning: E-A-D-G-B-e
Intro: first time
e------------------------------------------------------------------|
B----------3-------------------------------------------------------|
G------2-------2---------------2-----------4-----------------------|
D--0-0---0---0---0-----2-----2---------4-------4-------------------|
A------------------0-0---0-0-----0-2-2---2---2---2-----5-----5-----|
E--------------------------------------------------3-3---3-3---3/5-|
Intro again, but this time it's a bit different:
e----------2----------------------------------------------------|
B----------3--------------3-3-----------------------------------|
G------2------2-----------2-2-----------------------------------|
D--0-0---0------0-----2--------------4---4-5-2------------------|
A-----------------0-0---0------0-2-2---2-2-2-2-----5-----5------|
E----------------------------------------------3-3---3-3---3/5--|
All I'm giving is the intro, the rest of the others tabs seems to be correct.
-Danno

Comments about this tab

christiangtarst - 2006-11-28

Thats ok but the way i play the intro it is :
e-------------------------------------------------------------------|
b-------------------------------------------------------------------|
g---------7---------------------------------------------------------|
d-----7-------7------------7--------------9-------------------------|
a-5-5---5---5---5----7-------7--------9-------9---------5-----5-----|
e-----------------5-5--5-5-----5--7-7---7---7---7---3-3---3-3---3/5~| x2


Add a comment/correction

Complimentary Christian Ringtones
Dadamobile and CGR have teamed up to bring your favorite Christian artists right to your phone. Sign up today and get 10 complementary ringtones!
Tab Country
Did you know CGR has a sister site w/ country guitar tabs? Well we do! Its called Tab Country. It has a great archive with a lot of country tabs.
Rockin Tabs
Are you looking for a site that has rock guitar tabs? Then Rockintabs.com is the place for you. It is a budding site with many rock guitar tabs. Submit your tab today.
Tab Gallery
Tab Gallery has a compilation of christian, rock, and country tabs all in one place. Come visit us.