Guitar Tabs
song title    band name

Join Us Today!

Don't strum alone...
be a part of the largest online Christian music community. Browse thousands of guitar tabs and chat w/ musicians like yourself.


It's Free!

Relient K - Trademark

This tab has been rated a 3.50 out of 5 for accuracy. (4 votes)Sorry, but you must be logged in to rate this tab.
Click here to log-in, or you can click here to register.
(Registration is free)

All songs owned by corresponding publishing company. If you make copies of any song on this website, be sure to report your usage to CCLI.
Song: Trademark
Artist: Relient K
Tabbed By:  Jimmy Redzinak

Drop D

Intro:  
      F#               F#                  D                 D
E----------------------------------------------------------------------------
A----------------------------------------------------------------------------
D-----------77--99--------------77--99-------------77--66------------77-9-6--4x

A - let ring throughout solo               then  A, F#, E 

V1:(A)(E*)(F#*)(D)

Pre-Chorus:
(A)(E*)(F#*)(D)
F# A D E 
F# A D A - let ring

CH:A D A D (A)    INTRO

V2:(A)(E*)(F*)(D)

Interlude:   A, F#, E  4x   CHORUS  2x  Interlude:  A, F#, E  4x    A - let ring

Comments about this tab

Buckoman - 2004-02-07

I believe this song is not drop "D" but I think all strings are tuned down a whole step (D,G,C,F,A,D).Just my opinion.I think strumming the bar codes with this tuning sounds more like the cd than standard drop D.


stevo_1515 - 2004-08-10

its drop d


i'm a freak - 2004-08-11

relient k themselves said the song was in drop d
the riff after the intro goes like this:
(palm mute everything one the A string)
D-----11-----7-----14-----12-----11\--------9-----6(let ring)-------
A-0-0----0-0---0-0----0-0----0-0-------7-7----7-7-------------------

D-----7-----4(let ring)---------------
A-5-5---5-5---------------------------


stevo_1515 - 2004-09-19

alrighty
i use to hate this song until i got a guitar and heard the awsome solo
the intro goes like this
e -------------------------------------
b -------------------------------------
g -------------------------------------
d 3-44-77-99-44-77-99-00-77-66-00-77-96
a 3-44-------44-------00-------00------ x4
D 3-44-------44-------00-------00------

then you go like this
e -------------------------------
b -------------------------------
g -------------------------------
d --11--9--14--12--11--9--6--7--4 x2
a 00--00-00--00--00--77-77-55-55-
D -------------------------------

the verse goes like this
e ----------------------------------
b ----------------------------------
g 2-22222222222222-9-99999999999999-
d 2-22222222222222-9-99999999999999-
a 0-00000000000000-7-77777777777777-
D ----------------------------------
pm ************** **************
----------------------------------------------
----------------------------------------------
11-1111111111111111111111111111-7-777777777777
11-1111111111111111111111111111-7-777777777777 x2
9 -9 9 9 9 9 9 9 9 9 9 9 9 9 9 -5-555555555555
----------------------------------------------
pm * * * * * * * * * * * * * * *************

pm=palm mute
thats it for tonight i'll tab the rest tomorrow


stevo_1515 - 2004-09-19

alrighty
i use to hate this song until i got a guitar and heard the awsome solo
the intro goes like this
e -------------------------------------
b -------------------------------------
g -------------------------------------
d 3-44-77-99-44-77-99-00-77-66-00-77-96
a 3-44-------44-------00-------00------ x4
D 3-44-------44-------00-------00------

then you go like this
e -------------------------------
b -------------------------------
g -------------------------------
d --11--9--14--12--11--9--6--7--4 x2
a 00--00-00--00--00--77-77-55-55-
D -------------------------------

the verse goes like this
e ----------------------------------
b ----------------------------------
g 2-22222222222222-9-99999999999999-
d 2-22222222222222-9-99999999999999-
a 0-00000000000000-7-77777777777777-
D ----------------------------------
pm ************** **************
----------------------------------------------
----------------------------------------------
11-1111111111111111111111111111-7-777777777777
11-1111111111111111111111111111-7-777777777777 x2
9 -9 9 9 9 9 9 9 9 9 9 9 9 9 9 -5-555555555555
----------------------------------------------
pm * * * * * * * * * * * * * * **************

pm=palm mute
thats it for tonight i'll tab the rest tomorrow


stevo_1515 - 2004-09-19

alrighty
i use to hate this song until i got a guitar and heard the awsome solo
the intro goes like this
e -------------------------------------
b -------------------------------------
g -------------------------------------
d 3-44-77-99-44-77-99-00-77-66-00-77-96
a 3-44-------44-------00-------00------ x4
D 3-44-------44-------00-------00------

then you go like this
e -------------------------------
b -------------------------------
g -------------------------------
d --11--9--14--12--11--9--6--7--4 x2
a 00--00-00--00--00--77-77-55-55-
D -------------------------------

the verse goes like this
e ----------------------------------
b ----------------------------------
g 2-22222222222222-9-99999999999999-
d 2-22222222222222-9-99999999999999-
a 0-00000000000000-7-77777777777777-
D ----------------------------------
pm ************** **************
----------------------------------------------
----------------------------------------------
11-1111111111111111111111111111-7-777777777777
11-1111111111111111111111111111-7-777777777777 x2
9 -9 9 9 9 9 9 9 9 9 9 9 9 9 9 -5-555555555555
----------------------------------------------
pm * * * * * * * * * * * * * * **************

pm=palm mute
thats it for tonight i'll tab the rest tomorrow


stevo_1515 - 2004-09-25

woops i guess i accidently pushed submit 3 times sorry
heres the rest of the song

chorus
e
b
g
d


stevo_1515 - 2004-09-25

dangit sorry
pre-chorus
e--------------------------------------------------------------------------
b ------------------33333333-----------------------------------------------
g-------------------22222222----------------------------------------------2
d 44-444-4-22-222-2---------22222222-44-444-4-2-22-222-2-0000000022222222-2
a 44-444-4-22-222-2---------22222222-44-444-4-2-22-222-2-0000000022222222--
D 44-444-4-22-222-2---------22222222-44-444-4-2-22-222-2-0000000022222222--

e --------
b --------
g 44444444
d 22222222
a --------
D --------

chorus
e ------------------------------
b ---------------333333333333333
g ---------------222222222222222
d 222222222222222---------------x2
a 222222222222222---------------
D 000000000000000---------------

e --------------------------------
b --2--2-2--2--2-2--2--2-2--2--2-2
g 44-44-4-33-33-3-22-22-2-11-11-1-
d --------------------------------
a --------------------------------
D --------------------------------

e ---------------
b ---------------
g 77-----777-----
d 55-000-555-0003
a 55-000-555-0003
D ---000-----0003

intro

part after intro

e 00000000000000
b 77777777777777
intro x2

verse2

solo

e ----------------------
b ----------------------
g 7/6-----4/6-----6/4--4
d ----9/7-----7/4-----2- x2
a ----------------------
D ----------------------


thats it just the chorus again and another solo


mmggppmgp - 2005-01-07

stevo pls post it


beatrum - 2005-05-27

what does it mean to drop d tune? Is it just a half step down or what?


j3susfreak - 2005-08-05

no drop d means you tune the bottom e string down to a d...


Add a comment/correction

Complimentary Christian Ringtones
Dadamobile and CGR have teamed up to bring your favorite Christian artists right to your phone. Sign up today and get 10 complementary ringtones!
Tab Country
Did you know CGR has a sister site w/ country guitar tabs? Well we do! Its called Tab Country. It has a great archive with a lot of country tabs.
Rockin Tabs
Are you looking for a site that has rock guitar tabs? Then Rockintabs.com is the place for you. It is a budding site with many rock guitar tabs. Submit your tab today.
Tab Gallery
Tab Gallery has a compilation of christian, rock, and country tabs all in one place. Come visit us.