Guitar Tabs
song title    band name

Join Us Today!

Don't strum alone...
be a part of the largest online Christian music community. Browse thousands of guitar tabs and chat w/ musicians like yourself.


It's Free!

David Crowder Band, The - My Hope

This tab has not yet been rated for accuracy.Sorry, but you must be logged in to rate this tab.
Click here to log-in, or you can click here to register.
(Registration is free)

All songs owned by corresponding publishing company. If you make copies of any song on this website, be sure to report your usage to CCLI.
My Hope
David Crowder Band

~ This tab is for playing rhythm accoustic guitar.  For playing electric
guitar, you can try playing power chord instead.  It is prepared by my
guitar teacher.  Orig. a GuitarPro file.  Anyone wants it, email RT at
hkgrtse@yahoo.com, write "My Hope.gp3" at the subject, so that I won't
delete your email.

Intro, Verse 1 & 2
      G       D/F#               Em7    Cadd9          
E||---3---3---2--------2----|--3----3---3--------3----|
B||---3---3---3---3-3--3----|--3----3---3---3----3----|
G||*--0---0---2---2-2--2----|--0----0---0---0----0----|
D||*--0---0---0---0-0--0----|--0h2------2---2-2--2----|
A||---2-------0-------------|--2--------3---3-3--3----|
E||---3-------3-------------|--0----------------------|


  G       D/F#                  Em7    Cadd9                            
--3---3---2---------2--2-2-|--3----3---3-----------||------------------|
--3---3---3---3-3-3-3--3-3-|--3----3---3-----------||------------------|
--0---0---2---2-2-2-2--2-2-|--0----0---0----------*||------------------|
--0---0---0---0-0-0-0--0-0-|--0h2------2----------*||------------------|
--2-------0----------------|--2--------3-----------||------------------|
--3-------3----------------|--0--------------------||------------------|

Bridge b4 chorus
    C         D                   G/B       Cadd9               
|---0---0-0-0-2---2-2-2-2--2-2-|--3---3-3-3-3---3-3-3-3--3-3--||
|---1---1-1-1-3---3-3-3-3--3-3-|--3---3-3-3-3---3-3-3-3--3-3--||
|*--0---0-0-0-2---2-2-2-2--2-2-|--0---0-0-0-0---0-0-0-0--0-0-*||
|*--2---2-2-2-0---0-0-0-0--0-0-|--0---0-0-0-2---2-2-2-2--2-2-*||
|---3---3-3-3------------------|--2---2-2-2-3---3-3-3-3--3-3--||
|------------------------------|------------------------------||

Chorus
                       G            Cadd9           G            Cadd9          
-----------------||---3----3--3-3--3-3-3-3--3-3-|--3----3--3-3--3-3-3-3-3-3-3-|
-----------------||---3----3--3-3--3-3-3-3--3-3-|--3----3--3-3--3-3-3-3-3-3-3-|
-----------------||*--0----0--0-0--0-0-0-0--0-0-|--0----0--0-0--0-0-0-0-0-0-0-|
-----------------||*--0----0--0-0--2-2-2-2--2-2-|--0----0--0-0--2-2-2-2-2-2-2-|
-----------------||---2----2--2-2--3-3-3-3--3-3-|--2----2--2-2--3-3-3-3-3-3-3-|
-----------------||---3----3--3-3---------------|--3----3--3-3----------------|


  G            Cadd9           D                              
--3----3--3-3--3-3-3-3--3-3-|--2--2--2--2-2--2-2-2-2-2-2-3--||
--3----3--3-3--3-3-3-3--3-3-|--3--3--3--3-3--3-3-3-3-3-3-3--||
--0----0--0-0--0-0-0-0--0-0-|--2--2--2--2-2--2-2-2-2-2-2-2-*||
--0----0--0-0--2-2-2-2--2-2-|--0--0--0--0-0--0-0-0-0-0-0-0-*||
--2----2--2-2--3-3-3-3--3-3-|-------------------------------||
--3----3--3-3---------------|-------------------------------||

Bridge
                       Cadd9                        G/B                        
------------------||---------3--3-3--3----3--3-3-|--------3--3-3--3----3--3-3-|
------------------||---------3--3-3--3----3--3-3-|--------3--3-3--3----3--3-3-|
------------------||*--0--0--0--0-0--0-0--0--0-0-|--0--0--0--0-0--0-0--0--0-0-|
------------------||*--2--2--2--2-2--2-2--2--2-2-|--0--0--0--0-0--0-0--0--0-0-|
------------------||---3--3--3--3-3--3-3--3--3-3-|--2--2--2--2-2--2-2--2--2-2-|
------------------||-----------------------------|----------------------------|


  Cadd9                        G/B                        
--------3--3-3--3----3--3-3-|--------3--3-3--3----3--3-3-|
--------3--3-3--3----3--3-3-|--------3--3-3--3----3--3-3-|
--0--0--0--0-0--0-0--0--0-0-|--0--0--0--0-0--0-0--0--0-0-|
--2--2--2--2-2--2-2--2--2-2-|--0--0--0--0-0--0-0--0--0-0-|
--3--3--3--3-3--3-3--3--3-3-|--2--2--2--2-2--2-2--2--2-2-|
----------------------------|----------------------------|


  D                                 
--2--2--2--2--2--2--2-2-2-3--||---||
--3--3--3--3--3--3--3-3-3-3--||---||
--2--2--2--2--2--2--2-2-2-2-*||---||
--0--0--0--0--0--0--0-0-0-0-*||---||
-----------------------------||---||
-----------------------------||---||

Comments about this tab

dobrijdjen - 2005-01-17

This is very good. Crowder actually plays it with his guitar tuned to E (EAEEBE), but it sounds good either way. The only thing I do differently is play Dsus4/F# instead of D/F#. That way you get the constant G and D notes. Very nice tab!


Add a comment/correction

Complimentary Christian Ringtones
Dadamobile and CGR have teamed up to bring your favorite Christian artists right to your phone. Sign up today and get 10 complementary ringtones!
Tab Country
Did you know CGR has a sister site w/ country guitar tabs? Well we do! Its called Tab Country. It has a great archive with a lot of country tabs.
Rockin Tabs
Are you looking for a site that has rock guitar tabs? Then Rockintabs.com is the place for you. It is a budding site with many rock guitar tabs. Submit your tab today.
Tab Gallery
Tab Gallery has a compilation of christian, rock, and country tabs all in one place. Come visit us.