Guitar Tabs
song title    band name

Join Us Today!

Don't strum alone...
be a part of the largest online Christian music community. Browse thousands of guitar tabs and chat w/ musicians like yourself.


It's Free!

This tab has been rated a 3.33 out of 5 for accuracy. (3 votes)Sorry, but you must be logged in to rate this tab.
Click here to log-in, or you can click here to register.
(Registration is free)

All songs owned by corresponding publishing company. If you make copies of any song on this website, be sure to report your usage to CCLI.
Relient K
All Work and No Play
Cojack
Tabbed By: Richard Bell (richard@notoftheworld.net)

Power chords and distortion all the way through, I believe.
It starts with a bass line, after that's played twice the guitar intro
starts (listen to the song to know exactly where):

---Guitar 1 Intro---
 e--------------------------------------
 B--------------------------------------
 G--------------------------------------
 D-11-9-7-9-7-4-2-4--11-9-7-9-7-9-11-9-7 x2
 A--------------------------------------
 E--------------------------------------

After that's played twice Guitar 2 comes in with:

 (A5 D5 E5 A5 D5 e5*) x 3

During the second time of this Guitar 1 comes back in with the same intro
played twice again. After the third time go back to A5 and keep playing
that until the verse starts.


---Verse 1---
 (A5 D5 A5 e5* A5) x 2 A5

---Chorus 2---
 (A5 E5) x 3 A5

---Verse 2---
 (A5 D5 A5 e5* A5) x 2 A5

---Chorus---
 (A5 E5) x 3

 Then the guitars stop as the "last nigh-igh-ight" bit is sung again twice,
 then on end of the second time without guitar come back in with E5.

 (A5 E5) x 3 
 End on A5


Chords:
    A5  D5  E5  e5*
e---x---x---x---x---
B---x---x---x---x---
G---x---7---x---9---
D---7---7---2---9---
A---7---5---2---7---
E---5---x---0---x---
(E5 and e5* are interchangable - I just used the one I sounded best for
each part)

I'm pretty sure about all of that, but if you find any mistakes please email
me (richard@notoftheworld.net)!
This was my first attempt at tabbing anything, so please send any feedback
at all! Hope you find this useful, God bless!

Comments about this tab

Sammy D - 2005-03-31

e--------------------------------------
B--------------------------------------
G--------------------------------------
D-11-9-7-9-7-4-2-4--11-9-7-9-7-9-11-9--
A--------------------------------------
E--------------------------------------

e--------------------------------------
B--------------------------------------
G--------------------------------------
D-11-9-7-9-7-4-2-4--11-9-7-9-7-9-11-9-7
A--------------------------------------
E--------------------------------------


like this, child.


Add a comment/correction

Complimentary Christian Ringtones
Dadamobile and CGR have teamed up to bring your favorite Christian artists right to your phone. Sign up today and get 10 complementary ringtones!
Tab Country
Did you know CGR has a sister site w/ country guitar tabs? Well we do! Its called Tab Country. It has a great archive with a lot of country tabs.
Rockin Tabs
Are you looking for a site that has rock guitar tabs? Then Rockintabs.com is the place for you. It is a budding site with many rock guitar tabs. Submit your tab today.
Tab Gallery
Tab Gallery has a compilation of christian, rock, and country tabs all in one place. Come visit us.