Guitar Tabs
song title    band name

Join Us Today!

Don't strum alone...
be a part of the largest online Christian music community. Browse thousands of guitar tabs and chat w/ musicians like yourself.


It's Free!

Waterdeep - 18 Bullet Holes

This tab has been rated a 5.00 out of 5 for accuracy. (1 vote)Sorry, but you must be logged in to rate this tab.
Click here to log-in, or you can click here to register.
(Registration is free)

All songs owned by corresponding publishing company. If you make copies of any song on this website, be sure to report your usage to CCLI.
"18 Bulletholes" by Waterdeep (from the album "Sink or Swim")
transcribed by Guy Williams, tweaked by sco

_____________________________________________
| Note from sco:
| I'm not sure that all of these chords are named correctly, or
| that they're even right at all, but it sounds okay to me when
| I play it using these forms for the named chords:
| 
|   E   - 022100
|   E7  - 020100
|   C#9 - 046600
|   C#m - 046650
|   B9  - x24400
|   A9  - x02200
|____________________________________________

the intro goes something like this:

   E        E7          C#9          B9
e/-----------------------------------------------------------/
b/-----------------------------------------------------------/
g/---1---1h2-1------1---1h2-1-----1---1h2-1------------------/
d/-2---2-------2--0---0-------0------------------2---2-1-----/
a/------------------------------4---4-------4--2---2-----2---/
E/-----------------------------------------------------------/
       A9     B9       A9          B9
e/-----------------------------------------------------------/
b/-----------------------------------------------------------/
g/-----------4----------------------4------------------------/
d/-------2----------2---2-1-----2----------------------------/
a/-----0---0---0--2---2-----2-0---0---0-2(hold)--------------/
E/-----------------------------------------------------------/


go from holding the last note of the intro straight into the song:

E      E7     C#9
B9     A9
B9     A9
B9     C#mE   E7     C#9
B9     A9
B9     A9
B9     C#m (strum down a few times)


    
B9(strum down about 3 times)

E     B9    A9    E     C#9   B9    A9
E     B9    A9    E
C#9   B9    A9

Verse

bridge: (this goes right along with the intro part)
E
E7
C#9   B9
A9
B9
A9
B9

Verse
Chorus
Ending Chorus

the intro is played again with the chords playing in the background.
listen to the cd to get the idea as far as timing goes.  enjoy, this is
an awesome song.

Comments about this tab

No comments/corrections found. Add your own

Complimentary Christian Ringtones
Dadamobile and CGR have teamed up to bring your favorite Christian artists right to your phone. Sign up today and get 10 complementary ringtones!
Tab Country
Did you know CGR has a sister site w/ country guitar tabs? Well we do! Its called Tab Country. It has a great archive with a lot of country tabs.
Rockin Tabs
Are you looking for a site that has rock guitar tabs? Then Rockintabs.com is the place for you. It is a budding site with many rock guitar tabs. Submit your tab today.
Tab Gallery
Tab Gallery has a compilation of christian, rock, and country tabs all in one place. Come visit us.