Guitar Tabs
song title    band name

Join Us Today!

Don't strum alone...
be a part of the largest online Christian music community. Browse thousands of guitar tabs and chat w/ musicians like yourself.


It's Free!

Third Day - All The Heavens

This tab has been rated a 1.67 out of 5 for accuracy. (3 votes)Sorry, but you must be logged in to rate this tab.
Click here to log-in, or you can click here to register.
(Registration is free)

All songs owned by corresponding publishing company. If you make copies of any song on this website, be sure to report your usage to CCLI.
*NOTE - This version of "All The Heavens" does not differ much from the other
version available on this site. The main difference is that it does not
require as much sliding on the neck of the guitar, and it is at a lower tone.

Title: All the Heavens
Artist: Third Day
Album: Offerings
Copyright 2000 Essential Records
Tabbed by: Steven (bigmack91185@aol.com)


Main Verse (Play Twice)
E -------------------7------------------
B -0-2-5-5-7-5-7-9-9---10-10-10-5-7-7-5-
G --------------------------------------
D --------------------------------------
A --------------------------------------
E --------------------------------------


Chorus
E -0-3-5-5-5-3-5-3-0-0-3-5-5-5-8-7-0-3-5-5-5-3-5-3-0-3-1-0-----------
B ---------------------------------------------------------3-1-3-3-1-
G -------------------------------------------------------------------
D -------------------------------------------------------------------
A -------------------------------------------------------------------
E -------------------------------------------------------------------

Play these two parts in the order it is played in the song.

Comments about this tab

No comments/corrections found. Add your own

Complimentary Christian Ringtones
Dadamobile and CGR have teamed up to bring your favorite Christian artists right to your phone. Sign up today and get 10 complementary ringtones!
Tab Country
Did you know CGR has a sister site w/ country guitar tabs? Well we do! Its called Tab Country. It has a great archive with a lot of country tabs.
Rockin Tabs
Are you looking for a site that has rock guitar tabs? Then Rockintabs.com is the place for you. It is a budding site with many rock guitar tabs. Submit your tab today.
Tab Gallery
Tab Gallery has a compilation of christian, rock, and country tabs all in one place. Come visit us.