Guitar Tabs
song title    band name

Join Us Today!

Don't strum alone...
be a part of the largest online Christian music community. Browse thousands of guitar tabs and chat w/ musicians like yourself.


It's Free!

DC Talk - Jesus Freak

This tab has been rated a 2.00 out of 5 for accuracy. (3 votes)Sorry, but you must be logged in to rate this tab.
Click here to log-in, or you can click here to register.
(Registration is free)

All songs owned by corresponding publishing company. If you make copies of any song on this website, be sure to report your usage to CCLI.
Jesus Freak
Dc Talk
Tabbed by Pat

I looked at the versions of this song on this website, they are good but
this version is much more accurate, it took me alot of time and dedication
to tab this out but I am pretty sure its close to the actual song. 
It sounds cool though. Peace out...

Intro - 

Clean (acoustic sounding)

E-----------------------------------------------
B-----------------------------------------------
G--------------------------7-7-7----------------
D-------------------5-5-5--7-7-7--9-9-9---------
A---xx2-xx2--2-2-2--5-5-5--5-5-5--9-9-9---------
E---xx0-xx0--0-0-0--3-3-3---------7-7-7---------

Distortion part (repeat this three times)

E----------------------------------------
B----------------------------------------
G----------------------------------------
D---3-3-3--5-5-5-----5/6-6-6-5-5-3-3~~~--
A---3-3-3--5-5-5-------------------------
E---1-1-1--3-3-3-------------------------

Verse-

Em C A (play through out verses, listen to song for timing)

Rap-

Right at the end of the verse play this (I use a phaser for this part)

E---------------
B---------------
G---------------
D---------------
A---4h5-4h5-----
E---------------

                      Repeat this through out rap (I kind of palm mute it)
E---------------------------------------------------
B---------------------------------------------------
G---------------------------------------------------
D---------------------------------------------------
A---4/-10x-10x-10x-9x-9x-9x\-4x-4x-4x-5x-5xx--------
E---------------------------------------------------

Chorus-

E-------------------------------------------------------------------
B-------------------------------------------------------------------
G-----------------7-7-----------------------------------------------
D---------5-5-5---7-7---9-9-9----------5-5-5--7-7--9-9-9------------
A---2-2---5-5-5---5-5---9-9-9---2-2-2--5-5-5--5-5--9-9-9------------
E---0-0---3-3-3---------7-7-7---0-0-0--3-3-3-------7-7-7------------

Verse 2

Rap 2


Bridge-
                     (I think this is the right string)
E---------------------------
B---------------------------
G---------------------------
D---##(Pick scrape)##-------
A---------------------------
E---------------------------

Solo-  Repeat 3x          (This sounds right to me check it out)
E------------------1/-9---------9/-15-------------
B------------------------8-8----------14-14--16^--
G---6-6-6-----------------------------------------
D---6-6-6-5-5-5-----------------------------------
A---4-4-4-5-5-5-----------------------------------
E---------3-3-3-----------------------------------

Chorus
Outro-
End

I hope you'll enjoy this great song Peace out

Comments about this tab

No comments/corrections found. Add your own

Complimentary Christian Ringtones
Dadamobile and CGR have teamed up to bring your favorite Christian artists right to your phone. Sign up today and get 10 complementary ringtones!
Tab Country
Did you know CGR has a sister site w/ country guitar tabs? Well we do! Its called Tab Country. It has a great archive with a lot of country tabs.
Rockin Tabs
Are you looking for a site that has rock guitar tabs? Then Rockintabs.com is the place for you. It is a budding site with many rock guitar tabs. Submit your tab today.
Tab Gallery
Tab Gallery has a compilation of christian, rock, and country tabs all in one place. Come visit us.