Guitar Tabs
song title    band name

Join Us Today!

Don't strum alone...
be a part of the largest online Christian music community. Browse thousands of guitar tabs and chat w/ musicians like yourself.


It's Free!

Superchic[k] - Big Star Machine

This tab has not yet been rated for accuracy.Sorry, but you must be logged in to rate this tab.
Click here to log-in, or you can click here to register.
(Registration is free)

All songs owned by corresponding publishing company. If you make copies of any song on this website, be sure to report your usage to CCLI.
Author/Artist: Superchic[k]
Title: Big Star Machine
Album: Karaoke Superstars
Transcribed by: LLion of ZZion
Email: llionoffzzion@hotmail.com

drop d tuning. not perfect, i know. some slides missing (find them yourself).
d= strike down, u= strike up, strokes not noted when there's only strumming
down. wrote it for 2 guitars and bass guitar. try to give them each a
different color so you can figure out which part is which. for corrections,
suggestions, questions, mail me.

0:00 intro 
----------------------------------|-------------------------------------------
----------------------------------|-------------------------------------------
-7/9\7---7/9\7---7/9-9---9-9-9----|-7/9\7---7/9\7-----------------------------
----------------------------------|-------------------------------------------
-5/7\5---5/7\5---5/7-7---7-7-7----|-5/7\5---5/7\5-----------------------------
------------------------------(X3)|-------------------------------------------

----------------------------------|-------------------------------------------
----------------------------------|-------------------------------------------
-7-7-7-7-4-4-4-4-3-3-3-3-2-2-2-2--|-7-7-7-7-4-4-4-3---------------------------
-7-7-7-7-4-4-4-4-3-3-3-3-2-2-2-2--|-7-7-7-7-4-4-4-3---------------------------
-5-5-5-5-2-2-2-2-1-1-1-1-0-0-0-0--|-5-5-5-5-2-2-2-1---------------------------
------------------------------(X3)|-------------------------------------------

----------------------------------|-------------------------------------------
----------------------------------|-------------------------------------------
---------2-2-2-2-1-1-1-1----------|---------2-2-2-1---------------------------
-0-0-0-0----------------------(X3)|-0-0-0-0-----------------------------------

0:20 verse 1
------------------------------------------------------------------------------
------------------------------------------------------------------------------
-7---------------7------------------------------------------------------------
-7---------------7-7---------------7-5---------------5---9---9---7---7--------
-5---------------5-7---------------7-5---------------5---9---9---7---7--------
-------------------7---------------7-5---------------5---9---9---7---7----(X2)

------------------------------------------------------------------------------
------------------------------------------------------------------------------
-7-xxxxxxxxxxxxxx7------------------------------------------------------------
-7-xxxxxxxxxxxxxx7-7-xxxxxxxxxxxxxx7-5-xxxxxxxxxxxxxx5-xx9-xx9-xx7-xx7--------
-5-xxxxxxxxxxxxxx5-7-xxxxxxxxxxxxxx7-5-xxxxxxxxxxxxxx5-xx9-xx9-xx7-xx7--------
-------------------7-xxxxxxxxxxxxxx7-5-xxxxxxxxxxxxxx5-xx9-xx9-xx7-xx7----(X2)

------------------------------------------------------------------------------
------------------------------------------------------------------------------
------------------------------------------------------------------------------
-0-xxxxxxxxxxxxxx0-7-xxxxxxxxxxxxxx7-5-xxxxxxxxxxxxxx5-xx9-xx9-xx7-xx7----(X2)
 d dududududududud d dududududududud d dududududududud dud dud dud dud

------------------------------------------------------------------------------
------------------------------------------------------------------------------
------------------------------------------------------------------------------
-5---5---5---5---7------------------------------------------------------------
-5---5---5---5---7------------------------------------------------------------
-5---5---5---5---7------------------------------------------------------------

------------------------------------------------------------------------------
------------------------------------------------------------------------------
------------------------------------------------------------------------------
-5---5---5---5---7------------------------------------------------------------
-5---5---5---5---7------------------------------------------------------------
-5---5---5---5---7------------------------------------------------------------

------------------------------------------------------------------------------
------------------------------------------------------------------------------
------------------------------------------------------------------------------
-5---5---5---5---7------------------------------------------------------------
 0:42 chorus

--------------------------------------|---------------------------------------
--------------------------------------|---------------------------------------
---77-777----------77-777-------------|-----5-7-------------5-7---------------
-0-------2-22-2225-------7-77-777-----|-0-0-----2-2-2-2-5-5-----7-7-7-7-------
-0-55-5552-22-2225-55-5557-77-777-----|-0-0-5-7-2-2-2-2-5-5-5-7-7-7-7-7-------
-0-------2-22-2225-------7-77-777-(X4)|-0-0-----2-2-2-2-5-5-----7-7-7-7-------

--------------------------------------|---------------------------------------
--------------------------------------|---------------------------------------
--------------------------------------|---------------------------------------
-0-00-0002-22-2225-55-5557-77-777-----|-0-0-0-0-2-2-2-2-5-5-5-5-7-7-7-7-------
-0-00-0002-22-2225-55-5557-77-777-----|-0-0-0-0-2-2-2-2-5-5-5-5-7-7-7-7-------
-0-00-0002-22-2225-55-5557-77-777-(X4)|-0-0-0-0-2-2-2-2-5-5-5-5-7-7-7-7-------
 d du udud du udud du udud du udu       d d d d d d d d d d d d d d d d       

--------------------------------------|---------------------------------------
--------------------------------------|---------------------------------------
--------------------------------------|---------------------------------------
-0-00-0002-22-2225-55-5557-77-777-(X4)|-0-0-0-0-2-2-2-2-5-5-5-5-7-7-7-7-------

---------------------------------------
---------------------------------------
-----5-7-------------5-7---------------
-0-0-----2-2-2-2-5-5-----7-------------
-0-0-5-7-2-2-2-2-5-5-5-7-7-------------
-0-0-----2-2-2-2-5-5-----7-------------

---------------------------------------
---------------------------------------
---------------------------------------
-0-0-0-0-2-2-2-2-5-5-5-5-7-------------
-0-0-0-0-2-2-2-2-5-5-5-5-7-------------
-0-0-0-0-2-2-2-2-5-5-5-5-7-------------

---------------------------------------
---------------------------------------
---------------------------------------
-0-0-0-0-2-2-2-2-5-5-5-5-7-------------

1:08 verse 2
------------------------------------------------------------------------------
------------------------------------------------------------------------------
-7---------------7------------------------------------------------------------
-7---------------7-7---------------7-5---------------5---9---9---7---7--------
-5---------------5-7---------------7-5---------------5---9---9---7---7--------
-------------------7---------------7-5---------------5---9---9---7---7----(x2)

------------------------------------------------------------------------------
------------------------------------------------------------------------------
-7-xxxxxxxxxxxxxx7------------------------------------------------------------
-7-xxxxxxxxxxxxxx7-7-xxxxxxxxxxxxxx7-5-xxxxxxxxxxxxxx5-xx9-xx9-xx7-xx7--------
-5-xxxxxxxxxxxxxx5-7-xxxxxxxxxxxxxx7-5-xxxxxxxxxxxxxx5-xx9-xx9-xx7-xx7--------
-------------------7-xxxxxxxxxxxxxx7-5-xxxxxxxxxxxxxx5-xx9-xx9-xx7-xx7----(X2)

------------------------------------------------------------------------------
------------------------------------------------------------------------------
------------------------------------------------------------------------------
-0-xxxxxxxxxxxxxx0-7-xxxxxxxxxxxxxx7-5-xxxxxxxxxxxxxx5-xx9-xx9-xx7-xx7----(X2)

------------------------------------------------------------------------------
------------------------------------------------------------------------------
------------------------------------------------------------------------------
-5---5---5---5---0/12\0-(this is a special slide, dunno what it's called)-----
-5---5---5---5----------------------------------------------------------------
-5---5---5---5----------------------------------------------------------------

------------------------------------------------------------------------------
------------------------------------------------------------------------------
------------------------------------------------------------------------------
-5---5---5---5---7------------------------------------------------------------
-5---5---5---5---7------------------------------------------------------------
-5---5---5---5---7------------------------------------------------------------

------------------------------------------------------------------------------
------------------------------------------------------------------------------
------------------------------------------------------------------------------
-5---5---5---5---7------------------------------------------------------------
1:29 chorus
--------------------------------------|---------------------------------------
--------------------------------------|---------------------------------------
--------------------------------------|---------------------------------------
-4---4-5-4---4-5-7---4-5-4---4-5------|-4---4-5-4---4-5-7---4-5-4---4-5-------
---5-------5-------5-------5----------|---5-------5-------5-------5-----------
----------------------------------(X4)|---------------------------------------

--------------------------------------|---------------------------------------
--------------------------------------|---------------------------------------
--------------------------------------|---------------------------------------
-0-00-0002-22-2225-55-5557-77-777-----|-0-0-0-0-2-2-2-2-5-5-5-5-7-7-7-7-------
-0-00-0002-22-2225-55-5557-77-777-----|-0-0-0-0-2-2-2-2-5-5-5-5-7-7-7-7-------
-0-00-0002-22-2225-55-5557-77-777-(X4)|-0-0-0-0-2-2-2-2-5-5-5-5-7-7-7-7-------

--------------------------------------|---------------------------------------
--------------------------------------|---------------------------------------
--------------------------------------|---------------------------------------
-0-00-0002-22-2225-55-5557-77-777-(X4)|-0-0-0-0-2-2-2-2-5-5-5-5-7-7-7-7-------

---------------------------------------
---------------------------------------
---------------------------------------
-4---4-5-4---4-5-7---4-5-4-------------
---5-------5-------5-------------------
---------------------------------------

---------------------------------------
---------------------------------------
---------------------------------------
-0-0-0-0-2-2-2-2-5-5-5-5-7-------------
-0-0-0-0-2-2-2-2-5-5-5-5-7-------------
-0-0-0-0-2-2-2-2-5-5-5-5-7-------------

---------------------------------------
---------------------------------------
---------------------------------------
-0-0-0-0-2-2-2-2-5-5-5-5-7-------------
                                                                              
1:55 "good job"

1:59 chorus & ending
----------------------------------------------------------------------|-------
----------------------------------------------------------------------|-------
-7-7-7-7-9-9-9-9-111111111441414-7-7-7-7-9-9-9-9-111111111441414------|-------
----------------------------------------------------------------------|-12----
-5-5-5-5-7-7-7-7-9-9-9-9-121212125-5-5-5-7-7-7-7-9-9-9-9-12121212-(X9)|-12----
----------------------------------------------------------------------|-12----

----------------------------------------------------------------------|-------
----------------------------------------------------------------------|-------
----------------------------------------------------------------------|-------
-0---0-0---0-0-0-2---2-2---2-2-2-5---5-5---5-5-5-7---7-7---7-7-7------|-0-----
-0---0-0---0-0-0-2---2-2---2-2-2-5---5-5---5-5-5-7---7-7---7-7-7------|-0-----
-0---0-0---0-0-0-2---2-2---2-2-2-5---5-5---5-5-5-7---7-7---7-7-7--(X9)|-0-----

----------------------------------------------------------------------|-------
----------------------------------------------------------------------|-------
----------------------------------------------------------------------|-------
-0---0-0---0-0-0-2---2-2---2-2-2-5---5-5---5-5-5-7---7-7---7-7-7--(X9)|-0-----

Comments about this tab

thejesusfreak36 - 2008-02-28

LOVE THIS SONG!!!!! ROCK OUT 4 JESUS!!!


Add a comment/correction

Complimentary Christian Ringtones
Dadamobile and CGR have teamed up to bring your favorite Christian artists right to your phone. Sign up today and get 10 complementary ringtones!
Tab Country
Did you know CGR has a sister site w/ country guitar tabs? Well we do! Its called Tab Country. It has a great archive with a lot of country tabs.
Rockin Tabs
Are you looking for a site that has rock guitar tabs? Then Rockintabs.com is the place for you. It is a budding site with many rock guitar tabs. Submit your tab today.
Tab Gallery
Tab Gallery has a compilation of christian, rock, and country tabs all in one place. Come visit us.