Guitar Tabs
song title    band name

Join Us Today!

Don't strum alone...
be a part of the largest online Christian music community. Browse thousands of guitar tabs and chat w/ musicians like yourself.


It's Free!

Pax217 - Tonight

This tab has been rated a 4.67 out of 5 for accuracy. (3 votes)Sorry, but you must be logged in to rate this tab.
Click here to log-in, or you can click here to register.
(Registration is free)

All songs owned by corresponding publishing company. If you make copies of any song on this website, be sure to report your usage to CCLI.
Author/Artist: pax 217
Title: tonight
Album: engage
Transcribed by: the llion of zzion
Email: llionofzzion@hotmail.com

mind the drop-d tuning! wrote this for 2 guitars and bass guitar, so that's
why this tabbing got so long best reviewed in courier new, 9, wrote lead
and rhythm and bass guitar next under each other, though sometimes i left
one guitar out. try to give them a color, so you can sperate them easily.
thx jessica, paul and mr. remain12@yahoo.com, for inspiring me. only thing
i'm not so happy bout are the bass lines, i hope they come over quite
correctly. mail me for corrections, suggestions & questions. have fun.

0:00 intro/chorus (riff x2 - for rhythm, listen carefully to track):
e------------------------------------------------------------------------------
B------------------------------------------------------------------------------
G------------------------------------------------------------------------------
D-0-121212121212-0-0-5-5-5-5-5-5--0-0-4-4-4-4-4-4--0-0-5-5-5-5-5-5--0----------
A-0-121212121212-0-0-5-5-5-5-5-5--0-0-4-4-4-4-4-4--0-0-5-5-5-5-5-5--0----------
D-0-121212121212-0-0-5-5-5-5-5-5--0-0-4-4-4-4-4-4--0-0-5-5-5-5-5-5--0----------
e------------------------------------------------------------------------------
B------------------------------------------------------------------------------
G------------------------------------------------------------------------------
D-0-121212121212-0-0-121212121212-0-0-121212121212-0-0-121212121212-0----------
A-0-121212121212-0-0-121212121212-0-0-121212121212-0-0-121212121212-0----------
D-0-121212121212-0-0-121212121212-0-0-121212121212-0-0-121212121212-0----------
G------------------------------------------------------------------------------
D------------------------------------------------------------------------------
A------------------------------------------------------------------------------
D-0-121212121212-0-0-5-5-5-5-5-5--7-0-4-4-4-4-4-4--0-0-5-5-5-5-5-5--0----------

0:20 verse 1 (riff x4):
e------------------------------------------------------------------
B----------------------------------7---7---7---7---7---7---7---7---
G--7---7---7---7---7---7---7---7---6---6---6---6---6---6---6---6---
D--7---7---7---7---7---7---7---7---7---7---7---7---7---7---7---7---
A--5---5---5---5---5---5---5---5---5---5---5---5---5---5---5---5---
D------------------------------------------------------------------
G------------------------------------------------------------------
D------------------------------------------------------------------
A------------------------------------------------------------------
D--9p7h9-------4p2h4-------0h2-----9p7h9-------4p2h4-----------0h2-

0:39 prechorus (riff x4)
G--------------------------------
D--------------------------------
A--------------------------------
D--9-9-9-4-4-4-5-5-5-0---2-------
 
0:49 chorus (riff x2)

1:09 verse 2:
e------------------------------------------------------------------
B----------------------------------7---7---7---7---7---7---7---7---
G--7---7---7---7---7---7---7---7---6---6---6---6---6---6---6---6---
D--7---7---7---7---7---7---7---7---7---7---7---7---7---7---7---7---
A--5---5---5---5---5---5---5---5---5---5---5---5---5---5---5---5---
D------------------------------------------------------------------

e------------------------------------------------------------------
B----------------------------------7---7---7---7---7---7---7---7---
G--7---7---7---7---7---7---7---7---6---6---6---6---6---6---6---6---
D--7---7---7---7---7---7---7---7---7---7---7---7---7---7---7---7---
A--5---5---5---5---5---5---5---5---5---5---5---5---5---5---5---5---
D------------------------------------------------------------------
G------------------------------------------------------------------
D------------------------------------------------------------------
A------------------------------------------------------------------
D-/9---9---9---9---9---9---9---9---9---9---9---9---9---9---9h12p9--

e-------------------------------------------------------------------
B-----------------------------------7---7---7---7---7---7---7---7---
G--7---7---7---7---7---7---7----7---6---6---6---6---6---6---6---6---
D--7---7---7---7---7---7---7----7---7---7---7---7---7---7---7---7---
A--5---5---5---5---5---5---5----5---5---5---5---5---5---5---5---5---
D-------------------------------------------------------------------
e------------------------------------------------------------------- 
B-------------------------------------------------------------------
G-------------------------------------------------------------------
D-----------------------------------------------------------7---7---
A-----------------------------------------------------------7---7---
D-----------------------------------------------------------7---7---
G-------------------------------------------------------------------
D-------------------------------------------------------------------
A-------------------------------------------------------------------
D--9---9---9---9---9---9---912119---7---7---7---7---7---7---7---7---

e------------------------------------------------------------------
B----------------------------------7---7---7---7---7---7---7---7---
G--7---7---7---7---7---7---7---7---6---6---6---6---6---6---6---6---
D--7---7---7---7---7---7---7---7---7---7---7---7---7---7---7---7---
A--5---5---5---5---5---5---5---5---5---5---5---5---5---5---5---5---
D------------------------------------------------------------------
G------------------------------------------------------------------
D------------------------------------------------------------------
A------------------------------------------------------------------
D--9p7h9-------4p2h4-------0h2-----9p7h9-------4p2h4-----------0h2-

e------------------------------------------------------------------
B----------------------------------7---7---7---7---7---7---7---7---
G--7---7---7---7---7---7---7---7---6---6---6---6---6---6---6---6---
D--7---7---7---7---7---7---7---7---7---7---7---7---7---7---7---7---
A--5---5---5---5---5---5---5---5---5---5---5---5---5---5---5---5---
D------------------------------------------------------------------
G------------------------------------------------------------------
D------------------------------------------------------------------
A------------------------------------------------------------------
D--9p7h9-------4p2h4-------0h2-----9p7h9-------4p2h4-----------0h2-

1:32 prechorus (riff x4)
G--------------------------------
D--------------------------------
A--------------------------------
D--9-9-9-4-4-4-5-5-5-0---2-------

1:42 chorus (riff x2)

2:02 prebridge (for rythm, see counting beneath staff):
e------------------------------------------------------------------------------
B-----8---7-----------8---7-----------8---7-----------8---7--------------------
G---7---7---7-7-7---7---7---7-------7---7---7-7-7---7---7---7------------------
D-5---------------------------5-------------------------------5----------------
A------------------------------------------------------------------------------
D------------------------------------------------------------------------------
e------------------------------------------------------------------------------
B------------------------------------------------------------------------------
G------------------------------------------------------------------------------
D-0---------------5---------------4---------------5-------5---7----------------
A-0---------------5---------------4---------------5-------5---7----------------
D-0---------------5---------------4---------------5-------5---7----------------
G------------------------------------------------------------------------------
D------------------------------------------------------------------------------
A------------------------------------------------------------------------------
D-0---------------5---------------4---------------5-------5---7----------------
  1   2   3   4   1   2   3   4   1   2   3   4   1   2   3   4

2:11 bridge (guitar one and bass guitar):
e------------------------------------------------------------------------------
B-----8---7-----------8---7-----------8---7-----------8---7--------------------
G---7---7---7-7-7---7---7---7-------7---7---7-7-7---7---7---7------------------
D-5---------------------------5-------------------------------5----------------
A------------------------------------------------------------------------------
D------------------------------------------------------------------------------
G------------------------------------------------------------------------------
D------------------------------------------------------------------------------
A------------------------------------------------------------------------------
D-9994445550--2-4-9994445550--2-4-9994445550--2-4-9999999999999----------------
		
2:21 postbridge:
e------------------------------------------------------------------------------
B------------------------------------------------------------------------------
G------------------------------------------------------------------------------
D-5--5--5-7--7--7-9--9--9-7--7--7-9--9--9-7--7--7-9--9--9-11-11-11-------------
A-5--5--5-7--7--7-9--9--9-7--7--7-9--9--9-7--7--7-9--9--9-11-11-11-------------
D-5--5--5-7--7--7-9--9--9-7--7--7-9--9--9-7--7--7-9--9--9-11-11-11-------------
e------------------------------------------------------------------------------
B------------------------------------------------------------------------------
G------------------------------------------------------------------------------
D-5--5--5-7--7--7-5--5--5-7--7--7-5--5--5-7--7--7-5--5--5-7--7--7--------------
A-5--5--5-7--7--7-5--5--5-7--7--7-5--5--5-7--7--7-5--5--5-7--7--7--------------
D-5--5--5-7--7--7-5--5--5-7--7--7-5--5--5-7--7--7-5--5--5-7--7--7--------------
G------------------------------------------------------------------------------
D------------------------------------------------------------------------------
A------------------------------------------------------------------------------
D-5--5--5-7--7--7-5--5--5-7--7--7-5--5--5-7--7--7-9--9--9-11-11-11-------------
  1   2   3   4   1   2   3   4   1   2   3   4   1   2   3   4

2:31 modified chorus (riff x2)
e------------------------------------------------------------------------------
B------------------------------------------------------------------------------
G------------------------------------------------------------------------------
D-12---------------------------------------------------------------------------
A-12---------------------------------------------------------------------------
D-12---------------------------------------------------------------------------
e------------------------------------------------------------------------------
B------------------------------------------------------------------------------
G------------------------------------------------------------------------------
D-0----------------------------------------------------------------------------
A-0----------------------------------------------------------------------------
D-0----------------------------------------------------------------------------
G------------------------------------------------------------------------------
D------------------------------------------------------------------------------
A------------------------------------------------------------------------------
D-0----------------------------------------------------------------------------
  1   2   3   4   1               1               1

2:50 chorus (riff x4)

ending - let ring 
e-------
B-------
G-------
D-0-----
A-0-----
D-0-----
e-------
B-------
G-------
D-0-----
A-0-----
D-0-----
G-------
D-------
A-------
D-0-----

Comments about this tab

rockin'4God21 - 2005-06-04

cool tab not 100% but good thanx


~Cody


mafia strumer - 2006-07-25

hey, i just started playing about... oohhh... 6 months ago, but i just started taking lessons about 3 weeks ago. the point is i cant read tab very well yet, so it would be greatly appriciated if you could just rewrite the song in chords. i hope i havent been too much of a pain thnx, mafie man


mafia strumer - 2006-09-14

c'mon, someone write it in chordes!!!! :-( !!!
c'mon, im dyin over here... i wanted to play this song in a show but i need the chords. c'mon someone please!!!


mafia strumer - 2006-09-14

!


Add a comment/correction

Complimentary Christian Ringtones
Dadamobile and CGR have teamed up to bring your favorite Christian artists right to your phone. Sign up today and get 10 complementary ringtones!
Tab Country
Did you know CGR has a sister site w/ country guitar tabs? Well we do! Its called Tab Country. It has a great archive with a lot of country tabs.
Rockin Tabs
Are you looking for a site that has rock guitar tabs? Then Rockintabs.com is the place for you. It is a budding site with many rock guitar tabs. Submit your tab today.
Tab Gallery
Tab Gallery has a compilation of christian, rock, and country tabs all in one place. Come visit us.