Guitar Tabs
song title    band name

Join Us Today!

Don't strum alone...
be a part of the largest online Christian music community. Browse thousands of guitar tabs and chat w/ musicians like yourself.


It's Free!

This tab has been rated a 5.00 out of 5 for accuracy. (1 vote)Sorry, but you must be logged in to rate this tab.
Click here to log-in, or you can click here to register.
(Registration is free)

All songs owned by corresponding publishing company. If you make copies of any song on this website, be sure to report your usage to CCLI.
Artist - Stutterfly
Song - Lifes Disease
Album - Broken in Pieces...
Tabbed by Derek English(flames_adorn_the_silence@msn.com)

Drop D tuning.

Verses:
E|-------------------------------------------
B|-------------------------------------------
G|-------------------------------------------
D|---11--------11--------11--------11--------
A|-------9---------9---------9---------9-0---   Repeat 6x   
D|9---------9---------0---------0------------

Chorus:
E|--------------------
B|--------------------
G|--------------------
D|--11-11-----11-11---
A|-9--9------9--9-----    Repeat 4x
D|9--9------0--0------

End:
E|------------------------
B|------------------------
G|------------------------
D|---11--------11-----0---
A|-------9---------9--0---           
D|9---------9---------0---  

                                                                               
YO YO! Stutterfly are a wicked hardcore band out of Kelowna BC, Canada!
You should definately get their cd! This is my first tab so tell me what
you think ok guys, i will get the other songs of the cd up soon! Be excellent
to each other! And Party on dudes! - D-Rock!:D

Comments about this tab

ArKiTeQt - 2005-09-12

hey i have the "we were bled of colour" cd and this is how it gos for it

e----------------------------------------------------------------------------
B----------------------------------------------------------------------------
G----------------------------------------------------------------------------X6
D--------11------------------11-----------------11-----------------11--------
A----9--------9---9------9--------9---9-----9--------9---9-----9-------0---0-
D--9---9----9---9------9---9----9---9-----0---0----0---0-----0---0---0---0---

CHORUS (this is the background strumming part only from what i can tell, not the finger picking part)

Strum pattern: down, down, up, up, down, up (hit each note for the duration of the trum pattern)
e---9-----------7-----2-------------------------------------------------------
B---9-----------7-----2-------------------------------------------------------
G---9-----------7-----2-------------------------------------------------------
D---9-----0-----7-----2-------------------------------------------------------
A---9-----0-----7-----2-------------------------------------------------------
D---9-----0-----7-----2-------------------------------------------------------


Add a comment/correction

Complimentary Christian Ringtones
Dadamobile and CGR have teamed up to bring your favorite Christian artists right to your phone. Sign up today and get 10 complementary ringtones!
Tab Country
Did you know CGR has a sister site w/ country guitar tabs? Well we do! Its called Tab Country. It has a great archive with a lot of country tabs.
Rockin Tabs
Are you looking for a site that has rock guitar tabs? Then Rockintabs.com is the place for you. It is a budding site with many rock guitar tabs. Submit your tab today.
Tab Gallery
Tab Gallery has a compilation of christian, rock, and country tabs all in one place. Come visit us.