Guitar Tabs
song title    band name

Join Us Today!

Don't strum alone...
be a part of the largest online Christian music community. Browse thousands of guitar tabs and chat w/ musicians like yourself.


It's Free!

Relient K - Maybe It's Maybeline

This tab has been rated a 5.00 out of 5 for accuracy. (7 votes)Sorry, but you must be logged in to rate this tab.
Click here to log-in, or you can click here to register.
(Registration is free)

All songs owned by corresponding publishing company. If you make copies of any song on this website, be sure to report your usage to CCLI.
Artist: Relient K
Song: Maybe it's Maybeline
Tabbed by: FarsightedSpartan (crono801@charter.net)

Well, I saw a good tab of the complete song, but not one of the solo intro,
so I decided to submit my tab.

e--2-0-2-0-5-3-2-0-2-0-2-0-5-3-2-0-----------3-2-0------------
B----------------------------------2-3-0-2-3------------------
G-------------------------------------------------------------
D-------------------------------------------------------------
A-------------------------------------------------------------
E-------------------------------------------------------------

If you want, you can change the 2-0's to 2p0's, and the 2-3's to 2h3's it
sounds cool either way. Your preference.  Have fun.


---------------------


Just a few corrections on FarsightedSpartan's tab.. good job.. but I
don't think the higher part is played on the B string... and the 2020 on
the [high] e string jumps to the 3rd fret B string instead of another 0 at
the end.. umm I think that's all.. :)

e--2-0-2---5-3-2-0-2-0-2---5-3-2---9-10-7--9-10-3--2--0--
B--------3---------------3-------------------------------
G--------------------------------------------------------
D--------------------------------------------------------
A--------------------------------------------------------
E--------------------------------------------------------

Comments about this tab

rockin_4_Christ - 2005-01-25

i don't know if it is just me but the first one sounds better when I play it, but thats just me awsome job on both of them tho and
may God bless u with the gift of music.


jguitar08 - 2005-03-06

Good tab but sounds better on piano


MOMOluvsU - 2005-12-21

Good job on both of them but I think you both are off a little. The high octive doesn't sound right on the second on and the low octive on the first one. And if I knew how to write tabs I would show you what I mean, but I only play them I can't write them.


Cyutltlbrdntux - 2005-12-30

Sounds great! Keep up the good work!


TrinityVoice - 2006-03-28

I disagree with MOMOluvsU. I think its perfect


Crazy 4 Christ - 2006-07-29

The second one was right on! Keep up the good work!


Lou#1RelientKfn - 2007-04-19

Both are very nice tabs, though the second one sounds more accurate. Keep up
the good work!!!


Add a comment/correction

Complimentary Christian Ringtones
Dadamobile and CGR have teamed up to bring your favorite Christian artists right to your phone. Sign up today and get 10 complementary ringtones!
Tab Country
Did you know CGR has a sister site w/ country guitar tabs? Well we do! Its called Tab Country. It has a great archive with a lot of country tabs.
Rockin Tabs
Are you looking for a site that has rock guitar tabs? Then Rockintabs.com is the place for you. It is a budding site with many rock guitar tabs. Submit your tab today.
Tab Gallery
Tab Gallery has a compilation of christian, rock, and country tabs all in one place. Come visit us.