Guitar Tabs
song title    band name

Join Us Today!

Don't strum alone...
be a part of the largest online Christian music community. Browse thousands of guitar tabs and chat w/ musicians like yourself.


It's Free!

Relient K - Softer To Me

This tab has been rated a 4.63 out of 5 for accuracy. (19 votes)Sorry, but you must be logged in to rate this tab.
Click here to log-in, or you can click here to register.
(Registration is free)

All songs owned by corresponding publishing company. If you make copies of any song on this website, be sure to report your usage to CCLI.
Artist: Relient K
Song: Softer to Me
Tabbed by: FarsightedSpartan (crono801@charter.net)

Well, I looked on this site for an intro tab for this song, but realized
that both the ones that were already here were wrong.  Here is my tab, I'm
almost certain that it is 100% correct:

e-----------------------------------------------------------------------
B-----------------------------------------------------------------------
G---5565-5565-5----5-----------8----------------------------------------
D--------------666--666-6686-66-6-5565-5565-----------------------------
A-----------------------------------------------------------------------
E-----------------------------------------------------------------------


Have fun.

Comments about this tab

GENERATIONSLTC - 2004-07-21

this is wrong!!! i have seen them in concert and this is how they play it.

d---10-10-11-10-10-11------10----10----10--------------------------------------
a-----------------------11----11----11------11-11-13-11-11-13-10-10-11-10-10-11
e------------------------------------------------------------------------------


sack - 2004-09-12

Hey Farsighted Dude,

No one cares where on the fret-board you play it, as long as
it sounds the same. Good ear. Keep it up.


WWJD-4-U? - 2004-09-13

I like farsighted's better. sounds good 2 me. but i think it ends no the E string 3rd fret. peace


rkeman - 2004-09-17

i've done this over and over and i think it does sound better up on the 10th fret>>and rk plays it that way too.


whatiscool? - 2004-12-30

im gonna try it both ways, but, i dont think it really matters. i mean, its the same notes...


rockin_4_Christ - 2005-03-03

awsome tab! i tried it and on my first try it sounded perfect, keep up the good work!


hawknelson28 - 2005-03-10


Intro:
e-1-1-2-1-1-1-2-1-1-----1-----------------4-------------
B------------------2-2-2-6-6-6-6-6-4-6-6-6-1-1-2-1-1-1-2
G-------------------------------------------------------
D-------------------------------------------------------
A-------------------------------------------------------
E-------------------------------------------------------


hawknelson28 - 2005-03-10


Intro:
e-1-1-2-1-1-1-2-1-1-----1-----------------4-------------
B------------------2-2-2-2-2-2-2-2-4-2-2-2-1-1-2-1-1-1-2
G-------------------------------------------------------
D-------------------------------------------------------
A-------------------------------------------------------
E-------------------------------------------------------
Opps sorry messed up on the frist one.


RelientKFan7 - 2005-07-17

This Tab is 100% correct!!! I just tabbed the entire song and submitted it, they havn't put it up yet, but I tabbed it the same way!!! It sounds flawless nice job!!!


Grbulldog21 - 2005-08-09

<><>


Grbulldog21 - 2005-08-09

hey hawknelson great tab.This song rocks.Keep up the good work.


Add a comment/correction

Complimentary Christian Ringtones
Dadamobile and CGR have teamed up to bring your favorite Christian artists right to your phone. Sign up today and get 10 complementary ringtones!
Tab Country
Did you know CGR has a sister site w/ country guitar tabs? Well we do! Its called Tab Country. It has a great archive with a lot of country tabs.
Rockin Tabs
Are you looking for a site that has rock guitar tabs? Then Rockintabs.com is the place for you. It is a budding site with many rock guitar tabs. Submit your tab today.
Tab Gallery
Tab Gallery has a compilation of christian, rock, and country tabs all in one place. Come visit us.