Guitar Tabs
song title    band name

Join Us Today!

Don't strum alone...
be a part of the largest online Christian music community. Browse thousands of guitar tabs and chat w/ musicians like yourself.


It's Free!

Pillar - Indivisible

This tab has been rated a 4.63 out of 5 for accuracy. (8 votes)Sorry, but you must be logged in to rate this tab.
Click here to log-in, or you can click here to register.
(Registration is free)

All songs owned by corresponding publishing company. If you make copies of any song on this website, be sure to report your usage to CCLI.
SONG: INDIVISIBLE
BAND: PILLAR
ALBUM: FIREPROOF

DROP D TUNING

KEY:
b= BEND NOTE
*= PALM MUTE

INTRO: USE DELAY (LISTEN TO CD FOR CORRECT TIMING)
PART A:                    PART B:                      
E-------------------------|----------------------
B----------------10-------|----------------------
G---7---9---10--------10--|----7---9---7---5---5-   PLAY THIS 4 TIMES
D-7---7---7----7----7-----|--7---7---7---7---7---
A-------------------------|----------------------
D-------------------------|----------------------

VERSE 1: SAME AS INTRO (4 TIMES)

PRECHORUS: DELAY
E------------------
B---10-----10---11-
G-7----7/8----8----  PLAY THIS 3 TIMES
D------------------
A------------------
D------------------

E------------------
B---10-----10------
G-7----7/8---------
D--------------12\-
A--------------12\-
D--------------12\-

CHORUS (USE DISTORTION)
E----------------------------------------
B-----------------0--------0-------------
G-----------------1--------1-------------    4 TIMES (ON END OF 1ST CHORUS PLAY
D-0--7-0----0-0-0-0--0-0-0-0-------------             THIS: E---  AND HOLD IT)
A-0--7-0----0-0-0----0-0-0---------------                   B---
D-O--7-0-3b-0-0-0----0-0-0----0-0-2-0-3b-                   G---
                                                            D-0-
                                                            A-0-
                                                            D-0-
VERSE 2: (USE DELAY)                                        
E-------------------------------------------------------------------------------
B----------------10---------------------10--------------------------------------
G---7---9---10--------10---7---9---10--------10----7---9---7---5---5---7---9---7
D-7---7---7----7----7----7---7---7----7----7-----7---7---7---7---7---7---7---7--
A-------------------------------------------------------------------------------
D-------------------------------------------------------------------------------

E----------
B----------
G---5---5--
D-7---7----   PLAY THIS 2 TIMES
A----------
D----------

PLAY PRECHORUS AND CHORUS AGAIN 

SOLO: (USE DISTORION)
E----------------------------------------------------------------------
B----------------------------------------------------------------------
G----------------------------------------------------------------------
D-0-12\---------------------------------------2-0-0-0-2-0-0-0-0*-0*-0*-
A-0-12\----------3/5---------3/5---------3/5--2-0-0-0-2-0-0-0-0*-0*-0*-
D-0-12\--2-3-2-0-----2-3-2-0-----2-3-2-0------2-0-0-0-2-0-0-0-0*-0*-0*-

E-------------------------------------------------------------------------
B-------------------------------------------------------------------------
G-------------------------------------------------------------------------
D--------------------------------------2-0-0-0-2-0-0-0-2-0--0-2-0-0---12/-
A---------3/5---------3/5---------3/5--2-0-0-0-2-0-0-0-2-0--0-2-0-0---12/-
D-2-3-2-0-----2-3-2-0-----2-3-2-0------2-0-0-0-2-0-0-0-2-0--0-2-0-0---12/-


PLAY THE CHORUS RIFF 5 TIMES, AND THEN END WITH THIS:

E------------------------
B-----------------0------
G-----------------1------
D-0--7-0----0-0-0-0--0-0-
A-0--7-0----0-0-0----0-0-
D-0--7-0-3b-0-0-0----0-0-

NOTE: AT THE END OF THE FIRST VERSE YOU PLAY PART B TWICE BEFORE GOING INTO
THE PRECHORUS.

THAT'S IT!                                  

Comments about this tab

Michael Slider - 2004-11-30

awesome song, sounds good enough for youth get 2 gathers


39lashes - 2005-01-19

it sounds a little more smooth on the bridge if you bend a half step on the second fret and then do a slide from 3 to 5 on the next string. just a tip for those listening.


rock4christ08 - 2005-01-27

hey buddy, saw ur tab.........nice work........sounds almost like it........ummmm do you have the fireproof DVD? you should watch the live performance at the parachute festival on it. it will all come clear buddy.
don't worry.......i'll retab it for ya. rayray


hammer07 - 2005-01-28

Intro: (played clean with delay effect)
E:-----------------------------------------------|
B:---------------------10x-----------------------|
G:--- 7--7---9xx--10xx-----10~~~~----------------|
D:--0--0-----------------------------------------|
A:-----------------------------------------------|
E:-----------------------------------------------|
P.M. . .

E:-----------------------------------------------|
B:-----------------------------------------------|
G:----7--7---9xx--7xx--5xx-x5~~~~~~--------------|
D:--0--0-----------------------------------------|
A:-----------------------------------------------|
E:-----------------------------------------------|
P.M. . .


easier more accurate version of the song i think


rock4christ08 - 2005-02-11

there's no palm mutes in the intro what-so-ever


swimmer009 - 2005-10-26

hey guys guess what the new pillar album coems out in june sometime!!!!!!!!!!!!!!!!!!!! go to jesus freak hideout it say its coming out 2006 june no title yet jus ta date thats so awsome i cant wait


swimmer009 - 2006-01-29

hey i have the book and the tuning is tone tune all strings one step so dgcfad ya its weird but it works


Add a comment/correction

Complimentary Christian Ringtones
Dadamobile and CGR have teamed up to bring your favorite Christian artists right to your phone. Sign up today and get 10 complementary ringtones!
Tab Country
Did you know CGR has a sister site w/ country guitar tabs? Well we do! Its called Tab Country. It has a great archive with a lot of country tabs.
Rockin Tabs
Are you looking for a site that has rock guitar tabs? Then Rockintabs.com is the place for you. It is a budding site with many rock guitar tabs. Submit your tab today.
Tab Gallery
Tab Gallery has a compilation of christian, rock, and country tabs all in one place. Come visit us.