Guitar Tabs
song title    band name

Join Us Today!

Don't strum alone...
be a part of the largest online Christian music community. Browse thousands of guitar tabs and chat w/ musicians like yourself.


It's Free!

FFH - Fly Away

This tab has been rated a 3.29 out of 5 for accuracy. (7 votes)Sorry, but you must be logged in to rate this tab.
Click here to log-in, or you can click here to register.
(Registration is free)

All songs owned by corresponding publishing company. If you make copies of any song on this website, be sure to report your usage to CCLI.
Fly Away
FFH
Tabbed by: Josiah    (guitarvibe55@yahoo.com)

Ok this a very accurate tab for the most part. I think they play it with
a capo on the 2nd fret but I'm not positive so I put the chords w/o the
capo in parentheses. So if you are NOT playing with a capo, use the CHORDS
IN PARENTHESES!!!! Plus, the timing on the Intro is kind of awkward but if
you listen to the song you can figure it out. I omit all unplayed strings

Intro: WITH CAPO (notes are 1 step up than note w/o capo)
   
A--0---0-0--0--             
E--0h2-0-3--2--          
B--3---3-3--3--         
 
WITHOUT CAPO:

D--0---0-0---0--
A--7h9-7-10--9--

Verses: 
C(D) G(A) F(G) G(A)   2X

Pre-Chorus:
Am(Bm) G(A) 
F(G)  G(A)

Chorus:
C(D) G(A) F(G) G(A) 4X
Am(Bm) G(A) F(G)
Bb(C)  F(G) G(A)
Am(Bm)  F(G) G(A) C(D)

Solo: It's the same with or without the capo. This is extremely accurate,
but I don't think it is completely perfect.

B----------------------------------------------------------
G--11p9----9-----12p11----------11p9-----------------------
D-------12-------------12-9----------12-9--12-9--12--7~~~--

B-------------------------19~~~------15------15-------------------------
G--11p9----9-----11h14-11-19~~~--14------14-----11-h12p11h12p11---------
D-------12-----------------------------------------------------12-14~~~-

PRE-CHORUS
CHORUS 2X
LAST LINE OF CHORUS REPEATEDLY (I'm not sure how many times)
END  ON  "C(D)"

That's all. I hope you enjoy it. I had a good time figuring it out.
Questions or comments email me at guitarvibe55@yahoo.com.   Later!

Comments about this tab

yavapine_e_bass - 2004-05-29

Your solo tab is 95% correct. There is one problem. Here is the correct tab.

B|-----------------------------------------------------------------------14~~~
G|11p9----9~~~-12p11p9-------11p9-----7-----7------11p9----9~~~-11-14-14-14~~~
D|-----12--------------11~~~------8b9---8b9---7~~~------12--------------------

B|------15-15-------15-15-------------------------|
G|13b14-14-14-13b14-14-14-12p11h12p11h12p11----9--|
D|------------------------------------------12---9|


musicmatt112590 - 2005-03-22

I love how you said, "Extremely accurate, but not perfect." That's like, the coolest oxymoron i've ever heard.


iflysioux - 2005-10-11

I agree with musicmatt that's awesome!!!


sportsman123 - 2006-05-30

yeah


Add a comment/correction

Complimentary Christian Ringtones
Dadamobile and CGR have teamed up to bring your favorite Christian artists right to your phone. Sign up today and get 10 complementary ringtones!
Tab Country
Did you know CGR has a sister site w/ country guitar tabs? Well we do! Its called Tab Country. It has a great archive with a lot of country tabs.
Rockin Tabs
Are you looking for a site that has rock guitar tabs? Then Rockintabs.com is the place for you. It is a budding site with many rock guitar tabs. Submit your tab today.
Tab Gallery
Tab Gallery has a compilation of christian, rock, and country tabs all in one place. Come visit us.