Guitar Tabs
song title    band name

Join Us Today!

Don't strum alone...
be a part of the largest online Christian music community. Browse thousands of guitar tabs and chat w/ musicians like yourself.


It's Free!

This tab has not yet been rated for accuracy.Sorry, but you must be logged in to rate this tab.
Click here to log-in, or you can click here to register.
(Registration is free)

All songs owned by corresponding publishing company. If you make copies of any song on this website, be sure to report your usage to CCLI.
One - Craig’s Brother

Intro 1
  Gtr 1
-|-----------------------------------------x2-| 
-|--------------------------------------------|
-|-9999999999999999--7------------------------|
-|----------------------9999999999999999--5---|
-|--------------------------------------------|
-|--------------------------------------------|

Gtr 2  (come in on second time of Gtr 1)
-|-----------------------------------------------------------------------x2-| 
-|--------------------------------------------------------------------------|
-|-12121212121212121212121212121212-----------------------------------------|
-|-----------------------------------9--12121212121212121212121212121212--9-|
-|--------------------------------------------------------------------------|
-|--------------------------------------------------------------------------|

Gtr 1
-|--------------------------------------------------------------------------|
-|--------------------------------------------------------------------------|
-|-121212-111111-99--121212-111111-99---------------------------------------|
-|-------------------------------------121212-101010-99--121212-101010-99---|
-|--------------------------------------------------------------------------|
-|--------------------------------------------------------------------------|
Cont’d x2
-|--------------------------------------------------------------------------|
-|--------------------------------------------------------------------------|
-|-121212-111111-99--121212-111111-99---------------------------------------|
-|-------------------------------------121212-101010-99--101010-999-77------|
-|--------------------------------------------------------------------------|
-|--------------------------------------------------------------------------|

Gtr 2
-|---------------------------------------------------------------------x1-|
-|------------------------------------------------------------------------|
-|-12121212121212121212121212121212---------------------------------------|
-|-----------------------------------9-121212-101010-99-101010-999-77-----|
-|------------------------------------------------------------------------|
-|------------------------------------------------------------------------|

Gtr 2
-|----------------------------------------------x2-|
-|-------------------------------------------------|
-|-9999999999--------------------------------------|
-|------------121212-101010-9999999999-777-555-----|
-|-------------------------------------------------|
-|-------------------------------------------------|

Intro 2
  Gtr 1
-|---------------------------------------------------------------------------|
-|---------------------------------------------------------------------------|
-|---------------------------------------------------------------------------|
-|-------10----------9-------7------------------10--------9------7-----------|
-|-12-12----12-10-10---10-9-9-9------10-9--12-12--12-10-10-10-9-9-9----------|
-|------------------------------10-10-------------------------------10-10-x\-|

  Gtr 2
-|---------------------------------------------------------|
-|---------------------------------------------------------|
-|--14----12----11---11-12---17----16---14-----14----------|
-|---------------------------------------------------------|
-|--12----10-----9----9-10--/15----14---12-----12-/--------|
-|----------------------------------------------------x\---|
Verse
  Gtr 1
-|------------------------------------------------------|      
-|------------------------------------------------------|
-|------------------------------------------------------|
-|--7----5----4-----4444--5555---7----5----444444444444-|
-|--7->--5->--4->---4444--5555---7->--5->--444444444444-|
-|--5----3----2-----2222--3333---5----3----222222222222-|
                                            ...........
  Gtr 2
-|-----------------------------------------------------------------|
-|-----------------------------------------------------------------|
-|--17----16----14---14141414-16161616--17----16---16--------------|
-|----->----->---->------------------------>---->------44444444444-|
-|--15----14----12---12121212-14141414--15----14---12--44444444444-|
-|-----------------------------------------------------22222222222-|
                                                       ...........
Chorus     
  Gtr 1
-|---------------------------------------------------------------|
-|---------------------------------------------------------------|
-|---------9-9-7-7-5-5-4-4--5-----12121212-11111111-----5*-5*-5*-|
-|--5-----------------------5->>>-12121212-11111111---5*---------|
-|--5->>>--7-7-5-5-3-3-2-2--3-----10101010--9-9-9-9--------------|
-|--3------------------------------------------------------------|

  Gtr 2
-|---------------------------------------------------------------|
-|---------------------------------------------------------------|
-|--------------------------5-----12121212-11111111-----5*-5*-5*-|
-|--5-----7-----------------5->>>-12121212-11111111---5*---------|
-|--5->>>-7->>>-------------3-----10101010--9-9-9-9--------------|
-|--3-----5------------------------------------------------------|

Gtr 1
-|-------------------------------------------------|
-|-------------------------------------------------|
-|---------9-9-7-7-5-5-4-4--5-------12-11-------9--|
-|--5-----------------------5-->>>--------ring-----|
-|--5->>>--7-7-5-5-3-3-2-2--3-------10-\9-------7--|
-|--3----------------------------------------------|

Gtr 2
-|-------------------------------------------------|
-|-------------------------------------------------|
-|--------------------------5----------12-------12-|
-|--5-----7-----------------5->>>---------ring-----|
-|--5->>>-7->>>-------------3----------10-------10-|
-|--3-----5----------------------------------------|

Solo
  Gtr 2
-|-12b-12-12-12-10-10------------------12-12-15-14-------------------17-15-14-|
-|-------------------12b-12-12-12-10-10-----------15-12------------15---------|
-|-----------------------------------------------------12-11--14-14-----------|
-|----------------------------------------------------------12----------------|
-|----------------------------------------------------------------------------|
-|----------------------------------------------------------------------------|
                                                                        
  Gtr 1 (under solo)
-|--------------------------------------|
-|--------------------------------------|
-|--------------------------------------|
-|--2--------5-------2------5555--4444--|
-|--2->>-----5->>----2->>---5555--4444--|
-|--0--------3-------0------3333--2222--|
Intro
  Gtr 1
-|-----------------------------------------x2-| 
-|--------------------------------------------|
-|-9999999999999999--7------------------------|
-|----------------------9999999999999999--5---|
-|--------------------------------------------|
-|--------------------------------------------|

  Gtr 2
-|-----------------------------------------------------------------------x2-| 
-|--------------------------------------------------------------------------|
-|-12121212121212121212121212121212-----------------------------------------|
-|-----------------------------------9--12121212121212121212121212121212--9-|
-|--------------------------------------------------------------------------|
-|--------------------------------------------------------------------------|

  Gtr 1
-|--------------------------------------------------------------------------|
-|--------------------------------------------------------------------------|
-|-121212-111111-99--121212-111111-99---------------------------------------|
-|-------------------------------------121212-101010-99--121212-101010-99---|
-|--------------------------------------------------------------------------|
-|--------------------------------------------------------------------------|
Cont’d
-|--------------------------------------------------------------------------|
-|--------------------------------------------------------------------------|
-|-121212-111111-99--121212-111111-99---------------------------------------|
-|-------------------------------------121212-101010-99--101010-999-77------|
-|--------------------------------------------------------------------------|
-|--------------------------------------------------------------------------|

Gtr 2
-|----------------------------------------------x2-|
-|-------------------------------------------------|
-|-9999999999--------------------------------------|
-|------------121212-101010-9999999999-777-555-----|
-|-------------------------------------------------|
-|-------------------------------------------------|

Intro 2
Verse

Chorus (slightly changed)
  Gtr 1
-|---------------------------------------------------------------|
-|---------------------------------------------------------------|
-|---------9-9-7-7-5-5-4-4--5-----12121212-11111111-----5*-5*-5*-|
-|--5-----------------------5->>>-12121212-11111111---5*---------|
-|--5->>>--7-7-5-5-3-3-2-2--3-----10101010--9-9-9-9--------------|
-|--3------------------------------------------------------------|

  Gtr 2
-|---------------------------------------------------------------|
-|---------------------------------------------------------------|
-|--------------------------5-----12121212-11111111-----5*-5*-5*-|
-|--5-----7-----------------5->>>-12121212-11111111---5*---------|
-|--5->>>-7->>>-------------3-----10101010--9-9-9-9--------------|
-|--3-----5------------------------------------------------------|

  Gtr 1
-|----------------------------------------------------------|
-|----------------------------------------------------------|
-|---------9-9-7-7-5-5-4-4--5-----16--14--12-12--12---------|
-|--5-----------------------5->>>-------------------break->-|
-|--5->>>--7-7-5-5-3-3-2-2--3-----14--12--10-10--10---------|
-|--3-------------------------------------------------------|

  Gtr 2
-|----------------------------------------------------------|
-|----------------------------------------------------------|
-|--------------------------5-----12--11----9-9---9----99---|
-|--5-----7-----------------5->>>----------------------99---|
-|--5->>>-7->>>-------------3-----10---9----7-7---7----77---|
-|--3-----5-------------------------------------------------|

Break
  Gtr 1
-|----------------------------------------------------------------------------
-|----------------------------------------------------------------------------
-|-------12-------11-------------------------------------12-------11---------- 
-|----14----14-14----14-14-14-14-12-------14-12-------------14-14----14-14-14- 
-|----------------------------------14-14-------14-12-14---------------------- 
-|-12------------------------------------------------------------------------- 

-|----------------------------------------------------------------------------
-|----------------------------------------------------------------------------
-|----------------------------12-------11------------------------------------- 
-|-14-12-------14-12-------------14-14----14-14-------12-------14-12---------- 
-|-------14-14-------14-12-14----------------------12----14-14-------14-12-14- 
-|----------------------------------------------14---------------------------- 

-|-------------------------------part3----------|
-|----------------------------------------------|
-|----------------------------------------------| 
-|----------------------------------------------| 
-|-14-14-14-12-12-12-10-10-9-9-9----------------| 
-|-------------------------------11-11-11-11-11-|  

Repeat the first two parts again, but replace part 3, with the part below.
-|----------------------------------------|
-|----------------------------------------|
-|-16-------14-------12----11-------12-11-| 
-|----14-14----14-14----14----14-14-------| 
-|----------------------------------------| 
-|----------------------------------------|

Gtr 2 (under gtr 1 break, come in on part 3 of Gtr 1)
-|-------------------------------------------------------------|
-|-------------------------------------------------------------|
-|-----------------9-------------7-------------12121212---11---|
-|--5------9-------9->>>--7------7->>>---5-----12121212---11---|
-|--5->>---9->>----7------7->>>--5-------5->>--10101010----9---|
-|--3------7--------------5--------------3---------------------|
    .      .       .      .      .       .      . . . .

Break 2
  Gtr 1
-|----------------------------------------------------------------------------
-|----------------------------------------------------------------------------
-|--4-44--7--5-55-4--7-77-5-4---911--11-12-11-9---9-99-77-5-55--16-17-16-14---
-|----------------------------------------------------------------------------
-|--2-22-/5--3-33-2-/5-55-3-2---7/9---9/10\-9-7---7-77-55-3-33--14/15\14-12---
-|----------------------------------------------------------------------------
Cont’d
-|-------------------------|
-|-------------------------|
-|--1414-1111-12-1212--14--|
-|-------------------------|
-|--1212--9-9-10-1010-/12--|
-|-------------------------|

Gtr 2
-|----------------------------------------------| x2
-|----------------------------------------------|
-|--9-99-------------------------------9-11-9---|
-|--9-99--9--7-77--5--4-44--7--5-5--4--9-11-9---|
-|--7-77--9--7-77--5--4-44--7--5-5--4--7/-9\7---|
-|--------7--5-55--3--2-22--5--3-3-\2-----------|
                                                                              

Bridge
  Gtr 1
-|---------------------------------------------x2-|----| 
-|------------------------------------------------|----|
-|------------------------------------------------|----|
-|-101010-999-77-999-777-55-777-555-44-555-444-00-|----|
-|------------------------------------------------|----|
-|------------------------------------------------|-x\-|

Gtr 2
-|----------------------------------x2-|----|
-|-------------------------------------|----|
-|-------------------------------------|----|
-|-77777777-55555555-44444444--444-555-|----|
-|-------------------------------------|----|
-|-------------------------------------|-x\-|
                                                                              

Verse

Chorus (slightly changed)
 Gtr 1
-|-------------------------------------------------------------|
-|----------------------------------------------------------5*-|
-|---------9-9-7-7-5-5-4-4--5-----12121212-11111111---5*--5*---|
-|--5-----------------------5->>>-12121212-11111111-----5*-----|
-|--5->>>--7-7-5-5-3-3-2-2--3-----10101010--9-9-9-9------------|
-|--3----------------------------------------------------------|

 Gtr 2
-|-------------------------------------------------------------|
-|----------------------------------------------------------5*-|
-|--------------------------5-----12121212-11111111---5*--5*---|
-|--5-----7-----------------5->>>-12121212-11111111-----5*-----|
-|--5->>>-7->>>-------------3-----10101010--9-9-9-9------------|
-|--3-----5----------------------------------------------------|

 Gtr 1
-|--------------------------------|------------------------x2--|
-|--------------------------------|----------------------------|
-|---------9-9-7-7-5-5-4-4--5-----|--9--141414-121212-11-12-11-|
-|--5-----------------------5->>>-|----------------------------|
-|--5->>>--7-7-5-5-3-3-2-2--3-----|-/7-/121212-101010--9/10\-9-|
-|--3-----------------------------|----------------------------|

 Cont’d
-|--------------------------------------------------------|
-|--------------------------------------------------------|
-|---9--141414-121212-11-12-11--16--14--12-11--7--9-------|
-|--------------------------------------------------ring--|
-|--/7-/121212-101010--9/10\-9--14--12--10--9--5--7-------|
-|--------------------------------------------------------|

 Gtr 2
-|-------------------|---------x3-|-----------|
-|-------------------|------------|-----------|
-|-------------------|--5-----7---|-----------|
-|--5-----7----------|--5->---7->-|--2--------|
-|--5->>>-7->>>------|--3-----5---|--2--ring--|
-|--3-----5----------|------------|--0--------|
                                                                              

Key:

>>> = 12 
>>  = 8
>   = 6
.   = palm mute
*   = harmonics
x\  = pickscrape

Comments about this tab

No comments/corrections found. Add your own

Complimentary Christian Ringtones
Dadamobile and CGR have teamed up to bring your favorite Christian artists right to your phone. Sign up today and get 10 complementary ringtones!
Tab Country
Did you know CGR has a sister site w/ country guitar tabs? Well we do! Its called Tab Country. It has a great archive with a lot of country tabs.
Rockin Tabs
Are you looking for a site that has rock guitar tabs? Then Rockintabs.com is the place for you. It is a budding site with many rock guitar tabs. Submit your tab today.
Tab Gallery
Tab Gallery has a compilation of christian, rock, and country tabs all in one place. Come visit us.