Guitar Tabs
song title    band name

Join Us Today!

Don't strum alone...
be a part of the largest online Christian music community. Browse thousands of guitar tabs and chat w/ musicians like yourself.


It's Free!

Kutless - Run

This tab has been rated a 2.50 out of 5 for accuracy. (2 votes)Sorry, but you must be logged in to rate this tab.
Click here to log-in, or you can click here to register.
(Registration is free)

All songs owned by corresponding publishing company. If you make copies of any song on this website, be sure to report your usage to CCLI.
Run
Kutless

This song is played in Drop D, even though they play some open chords.

This song starts on the first line of the chorus, and then goes to the verses.
 
Verse: PLay this part picking. (I don't know it exactly)
Em         C          D         D
-x---------0---------2----------2------
-x---------1---------3----------3------
-x---------0---------2----------2------
-2---------2---------0----------0------
-2---------3---------0----------0------
-2---------X---------0----------0------

Pre Chorus:
 C          G         D
-0----------x---------2---------
-1----------x---------3---------
-0----------0---------2---------
-2----------5---------0---------
-3----------5---------0---------
-x----------5---------0---------

Chorus:
 C           G         D
-x-----------x---------x-----
-x-----------x---------3-----
-x-----------x---------2-----
10-----------5---------0-----
10-----------5---------0-----
10-----------5---------0-----

That's about it, other tabs are going to show you this tab in open chords,
but I'm pretty sure they do in Drop D.  In fact, I don't think they play
anything open.
Peace,
Chad

Comments about this tab

jsoccer - 2004-10-27

No, they don't play in drop d, and i saw the music video, and they play open chords


Highfive1177 - 2005-06-22

This song IS played in Drop D...Kutless's whole debut album is in Drop D...and Id suggest changing the Em to an Em7. you can tell he's playing this chord when you listen to the picking in the verse.


jamforchrist123 - 2005-07-21

Yup, Its In Drop D. Just Look At The Video Of It, In The Chorus, They Only Use ONe Finger ON THe Lat Two Chords Of The Three.


Add a comment/correction

Complimentary Christian Ringtones
Dadamobile and CGR have teamed up to bring your favorite Christian artists right to your phone. Sign up today and get 10 complementary ringtones!
Tab Country
Did you know CGR has a sister site w/ country guitar tabs? Well we do! Its called Tab Country. It has a great archive with a lot of country tabs.
Rockin Tabs
Are you looking for a site that has rock guitar tabs? Then Rockintabs.com is the place for you. It is a budding site with many rock guitar tabs. Submit your tab today.
Tab Gallery
Tab Gallery has a compilation of christian, rock, and country tabs all in one place. Come visit us.