Guitar Tabs
song title    band name

Join Us Today!

Don't strum alone...
be a part of the largest online Christian music community. Browse thousands of guitar tabs and chat w/ musicians like yourself.


It's Free!

This tab has been rated a 5.00 out of 5 for accuracy. (4 votes)Sorry, but you must be logged in to rate this tab.
Click here to log-in, or you can click here to register.
(Registration is free)

All songs owned by corresponding publishing company. If you make copies of any song on this website, be sure to report your usage to CCLI.
"I Know"
Darrell Evans
Album: Freedom
Music and Words by: Lincoln Brewster and Darrell Evans
(c) 1998 Integrity's Hosanna! Music/ASCAP
Transcribed by: Dale Escolano (agent_bx7@yahoo.com)

Intro:
   
E|---------|-----------|
B|---3---3-|--1-----3--|
G|--0-0-0-0|-0-0---0--0|
D|-5---4---|2---2/4----|
A|---------|-----------|
E|---------|-----------|(repeat)
 

Verse:
E|---------|-----------        --------|----------|--3--0h2p0---0---0----|
B|---3---3-|--1-----3--        --3---3-|--1---1---|---3-------3---3---3-3|
G|--0-0-0-0|-0-0---0--0        -0-0-0-0|-0-0-0--0-|-0--------------0---0-|
D|-5---4---|2---2/4----        5---4---|2---0-----|----------------------|
A|---------|-----------        --------|----------|3---------------------|
E|---------|-----------(repeat)--------|----------|----------------------|   
                           
             	(repeat entire verse pattern)

Chorus:

E|---------------------------------|
B|---3---3---3---3---3---3---3---3-|
G|--0-0-0-0-0-0-0-0-0-0-0-0-0-0-0-0|
D|-------------0-------------------|
A|-----------------3---2---0-------|
E|-3---2---0-------------------2---|(repeat 2x)
	
                           Am7
E --------------------3-----0-|
B ---3---3---3---3---3------1-|
G --0-0-0-0-0-0-0-0-0-------0-| pause
D -------------0------------2-|   
A -----------------3--------0-|
E -3---2---0----------------0-|

	(do intro)
	(do verse)
	(do chorus)

Bridge:

C9   Bm7
C9   Am7 Pause

	(do verse)
	(do chorus)
	
E|--------------------- 	  --5-|
B|---3---3---1-----3--- 	  --3-|
G|--0-0-0-0-0-0---0--0- 	  --0-|
D|-5---4---2---2/4----- 	  --0-|
A|---------------------		  --2-|
E|--------------------- (repeat)  --3-|   -end-
 

Legend:
/  slide
h  hammer on
p  pull off


=)Didn't have a clear interpretation of the Bridge (i got lazy) so it's still
 open for a lot of improvements and suggestions if you have any. It would be a
 great help for the song. Enjoy!
Thanks and God bless. (i love you Beh!)

Comments about this tab

jeremycampfan05 - 2006-06-19

Ok, so maybe people won't respond-but what in the world does the 2/4 mean in you intro?????


jeremycampfan05 - 2006-06-19

My last comment was REALLY REALLY DUMB..... I just realized that you SLIDE to the 4th fret...I'm not really paying that much attention today! #:p


jeremycampfan05 - 2006-06-19

Other than my stupid 1st cmment-the tabbing is REALLY REALLY AWE-SOME-Great tab!


jeremycampfan05 <><


Add a comment/correction

Complimentary Christian Ringtones
Dadamobile and CGR have teamed up to bring your favorite Christian artists right to your phone. Sign up today and get 10 complementary ringtones!
Tab Country
Did you know CGR has a sister site w/ country guitar tabs? Well we do! Its called Tab Country. It has a great archive with a lot of country tabs.
Rockin Tabs
Are you looking for a site that has rock guitar tabs? Then Rockintabs.com is the place for you. It is a budding site with many rock guitar tabs. Submit your tab today.
Tab Gallery
Tab Gallery has a compilation of christian, rock, and country tabs all in one place. Come visit us.