Guitar Tabs
song title    band name

Join Us Today!

Don't strum alone...
be a part of the largest online Christian music community. Browse thousands of guitar tabs and chat w/ musicians like yourself.


It's Free!

Bleach - Baseline

This tab has been rated a 3.67 out of 5 for accuracy. (3 votes)Sorry, but you must be logged in to rate this tab.
Click here to log-in, or you can click here to register.
(Registration is free)

All songs owned by corresponding publishing company. If you make copies of any song on this website, be sure to report your usage to CCLI.
Baseline
Bleach
CD: Again for the First Time
Transcribed by: Geoff M.

Regular tuning.

Verse
C5 A5

Then go to chorus with F5

Chorus
C5 E5 A5 F5

Solo
e-------------------------------
B-12--12---5---5---8----10---8-- x2
G-14b-14b--7b--7b--10b--12b--10b

then
e------------
B-12---12--5-
G-14b-14b--7b

Chords
  A5 C5 E5 F5
e-------------
B-------------
G-2--5--------
D-2--5--2--3--
A-0--3--2--3--
E-------0--1--     b=bend

Comments about this tab

39lashes - 2004-07-20

the solo is kinda right but here is a better version:

pick-slide starts out the whole thing

1 step bends repeatthat first part

E[-------------------------------------|
B[-12--12-\-5--5--5--/8---/10-\-8---8--|
G[-14b-14b\-7b-7b-7b-/10b-/12b\-10b-10b|
D[-------------------------------------|
A[-------------------------------------|
D[-------------------------------------|

-gradual bend last time]
12--12--5--5--]
14b-14b-7b-7b-]
--------------]
--------------]
--------------]


Add a comment/correction

Complimentary Christian Ringtones
Dadamobile and CGR have teamed up to bring your favorite Christian artists right to your phone. Sign up today and get 10 complementary ringtones!
Tab Country
Did you know CGR has a sister site w/ country guitar tabs? Well we do! Its called Tab Country. It has a great archive with a lot of country tabs.
Rockin Tabs
Are you looking for a site that has rock guitar tabs? Then Rockintabs.com is the place for you. It is a budding site with many rock guitar tabs. Submit your tab today.
Tab Gallery
Tab Gallery has a compilation of christian, rock, and country tabs all in one place. Come visit us.