Guitar Tabs
song title    band name

Join Us Today!

Don't strum alone...
be a part of the largest online Christian music community. Browse thousands of guitar tabs and chat w/ musicians like yourself.


It's Free!

Forty Days - One Year Later

This tab has not yet been rated for accuracy.Sorry, but you must be logged in to rate this tab.
Click here to log-in, or you can click here to register.
(Registration is free)

All songs owned by corresponding publishing company. If you make copies of any song on this website, be sure to report your usage to CCLI.
Song:		One Year Later
Band:		Forty Days
Album:		Everyday
Tabbed By:	Devin Schreck (lay_z_boy2@juno.com)
==============================================================================
Note: There are Three Guitars in this song. One Acoustic And Two Electric. The 
Acoustic plays this:
Intro/Chorus: D2 Am G C G Am D
Pre Verse: Am
Verse/Solo: Bm A G D
Pre Chorus: G
================================================================================
Here’s the tab for the Electric Guitars

G1 Intro: Do first half 2 times.  Then do both 3 times    
E-----------|------------| 
B-----------|-10-8-7b8r7-|
G-----------|------------|
D-7-5-4b5r4-|------------|
A-----------|------------|
E-----------|------------|

G2 Intro:
E----------------------------------------------------------------------
B-------------------------------------------------------------10-------
G----------------------------------------------7~-----7-9-7-9b--r9-7---
D---------------------7-----------------7~-7h9----7h9------------------
A-----5-5-----5-7p5-7b-r7-5-----5-7p5-7b-------------------------------
E-5h7-----5h7---------------5h7----------------------------------------

E------------------------------------------|
B------------------------------------------|
G-11-14-11-14b16-16r14-11h14p11-10-9-7h9p7-|
D------------------------------------------|
A------------------------------------------|
E------------------------------------------|

G1 and G2 Pre Verse:
E-----------------|
B-----------------|
G-----9--------10-|
D-------7---------|
A---7--------8----|
E-5--------6------|

G1 and G2 Verse:
E---------------------------3-3-3-3-3-3-3-3-3-3----|
B---------------------------3-3-3-3-3-3-3-3-3-3----|
G---------------------------4-4-4-4-4-4-4-4-4-4--7-|
D-9xx9xx9xx9--xx7xx7xx7xx7--5-5-5-5-5-5-5-5-5-5--7-|
A-9xx9xx9xx9--xx7xx7xx7xx7--5-5-5-5-5-5-5-5-5-5--5-|
E-7xx7xx7xx7--xx5xx5xx5xx5--3-3-3-3-3-3-3-3-3-3----|





Pre Chorus:
E-----0-------0-------0--------0---|
B-------3-------3-------3--------3-|
G---2-------2-------2--------2-----|
D----------------------------------|
A-2-------0------------------------|
E-----------------3-------2--------|

Chorus:
E-5-5-5-5--5-5-5-5--3-3-3-3-3----------|
B-5-5-5-5--5-5-5-5--3-3-3-3-3----------|
G-7-7-7-7--5-5-5-5--4-4-4-4-4-5-----7--|
D-7-7-7-7--7-7-7-7--5-5-5-5-5-5-5-7-7--|X2
A-5-5-5-5--7-7-7-7--5-5-5-5-5-3-5-7-5--|
E----------5-5-5-5--3-3-3-3-3---3-5----|

Then Do Pre Verse
Then Verse
Then Pre Chorus 
Then Chorus

G2 Rhythm Solo:
E-------------------------------------------------------|
B-------------------------------------------------------|
G-------------------------------------------------11----|
D-7-5-4h5p4---xx7-5-4h5p4----4h5p4-4h5-5/7-7/9-12----12-|X2 then do this
A-----------5-------------/7----------------------------|
E-------------------------------------------------------|

E---------------------------------------------|
B---------------------------------7--7--------|
G---------------14b16r14-11h14p11-9b-9b11r9-7-|
D-5-5-9-7-5-----------------------------------|
A-5-5-5-5-5h7p5-------------------------------|
E-5-5-----------------------------------------|
  P.M.

G1 Solo:
E----------------------------------------------------------------------
B----------------------------------------------------------------------
G--------------------------------4-4/7-9b10r9-7-9-14b16-16r14-11-14-11-
D-7-5-4h5p4---xx7-5-4h5p4----5-7---------------------------------------
A-----------5-------------/7-------------------------------------------
E----------------------------------------------------------------------

E-----------------------------------------------------------------
B-12----12-12-12-------7----7--7--7------12----12-12-12-----------
G-14b16-16-16-16r14-11-9b11-11-11-11r9-7-14b16-16-16-16r14-11-11~-
D-----------------------------------------------------------------
A-----------------------------------------------------------------
E-----------------------------------------------------------------

E------------------------------------------------------------------------------
B---------------12---12----12----12----------------12----12----12----12--------
G-11-14-11-14b16--16----16----16----16r14-11-14b16----16----16----16----16r14-7
D------------------------------------------------------------------------------

E------------------------------------------------------------------------------
B-------12-------12-------12-------12-------12-------12------------------------
G-14b16----14b16----14b16----14b16----14b16----14b16----14b16------r14--11-9-7-
D------------------------------------------------------------------------------
A------------------------------------------------------------------------------
E------------------------------------------------------------------------------

E-----------------------------|
B-----------------------------|
G-----------------------------|
D-5-5-9-7-5-----5-5-9-7-5-----|
A-5-5-5-5-5h7---5-5-5-5-5h7p5-|
E-5-5-----------5-5-----------|
  P.M.          P.M.
Then do chorus x2

G1 ending:
E----------------------------------------------------| 
B-----------10-8-7b8r7-7\5------------10-8-7b8r7-7\3-|
G----------------------------------------------------|
D-7-5-4b5r4-----------------7-5-4b5r4----------------|x4
A----------------------------------------------------|
E----------------------------------------------------|

G2 ending:
E------------------------------------------------------------------------------
B----------------------------------------------------------------------15b17r15
G-----7-9b10r9-----7-9b-9b-7h9-9b-9b-7h9-7h9p7-----7-14b16r14-14h16p14---------
D-7h9----------7h9-----------------------------7h9-----------------------------
A------------------------------------------------------------------------------
E------------------------------------------------------------------------------

E------------------------------------------------------------------------------
B---------------------------------------------------------------------7--7-----
G-14b16r14-11h14p11-9b10-10-10r9-7----7-----7-----7-9b-7h9p7-16-16/14-9b-9b-7h9
D---------------------------------7h9-7-7h9-7-7h9-7----------------------------
A------------------------------------------------------------------------------
E------------------------------------------------------------------------------

E-----------------------------------------------------------------------|
B-------------------7--7----------------7--7--7--7----------------------|
G-11-7h9p7~-7-7-7---9b-9b-7h9p7~--7h9p7-9b-11-11-11r9-7-9-9-7~-7-7-9-7~-|
D-----------7-7-7h9--------------------------------------------9-7-7----|
A-----------------------------------------------------------------------|
E-----------------------------------------------------------------------|
            P.M.
================================================================================
There you go. Here are the chords for the Acoustic Guitar:
   EADBGE              r=return from bend
D2:xx0230              h=hammer on         
Am:002210              p=pull off
Bm:x24432              b=bend
 G:320033              /=slide up
 D:xx0232              \=slide down
 A:002220              ~=vibrato

Comments about this tab

No comments/corrections found. Add your own

Complimentary Christian Ringtones
Dadamobile and CGR have teamed up to bring your favorite Christian artists right to your phone. Sign up today and get 10 complementary ringtones!
Tab Country
Did you know CGR has a sister site w/ country guitar tabs? Well we do! Its called Tab Country. It has a great archive with a lot of country tabs.
Rockin Tabs
Are you looking for a site that has rock guitar tabs? Then Rockintabs.com is the place for you. It is a budding site with many rock guitar tabs. Submit your tab today.
Tab Gallery
Tab Gallery has a compilation of christian, rock, and country tabs all in one place. Come visit us.