Guitar Tabs
song title    band name

Join Us Today!

Don't strum alone...
be a part of the largest online Christian music community. Browse thousands of guitar tabs and chat w/ musicians like yourself.


It's Free!

Blindside - Caught a Glimpse

This tab has been rated a 3.75 out of 5 for accuracy. (4 votes)Sorry, but you must be logged in to rate this tab.
Click here to log-in, or you can click here to register.
(Registration is free)

All songs owned by corresponding publishing company. If you make copies of any song on this website, be sure to report your usage to CCLI.
Blindside  Caught a Glimpse

Intro:

Ed|----------------------------------------------------------|
Bd|----------------------------------------------------------|
F#|----------------------------------------------------------|
C#|----------7-----8-----5-----7-----7----7----7-------------|
G#|--8-7-5-----------------------------------------8-7-5-----|
C#|--------0----0----0------0-----0-----0----0---------------|

Ed|----------------------------------------------------------|
Bd|----------------------------------------------------------|
F#|----------------------------------------------------------|
C#|----7----8------8/12----12-----12-----12------------------|
G#|-------------------------12-----12------------------------|
C#|--0-----0----0-------0------------------------------------|

Verse:  Play this riff 4 times

Ed|----------------------------------------------------------|
Bd|----------------------------------------------------------|
F#|------------------7-------8-------12-------11-------------|
C#|--5---4---3---0---7---0---8---0---12---0----X-------------|
G#|--5---4---3---0---5---0---6---0---10---0----9-{x14}-------|
C#|--5---4---3---0-------0-------0--------0------------------|

Riff before Chorus:

Ed|----------------------------------------------------------|
Bd|----------------------------------------------------------|
F#|----------------------------------------------------------|
C#|--7---8---7---0---5---0---5---3---0-----------------------|
G#|--7---8---7---0---5---0---5---3---0-----------------------|
C#|--7---8---7---0---5---0---5---3---0-----------------------|

Chorus:

Ed|----------------------------------------------------------|
Bd|--10-------11---8-----------------------------------------|
F#|---X--------X---X-----------------------------------------|
C#|---7-{7X}---8---5---7---8---7---0---5---0---5---3---0-----|
G#|--------------------7---8---7---0---5---0---5---3---0-----|
C#|--------------------7---8---7---0---5---0---5---3---0-----|






Ed|--1---3---------------------------------------------------|
Bd|--1---3---------------------------------------------------|
F#|--3---5---------------------------------------------------|
C#|--3---5---7---8---7---0---5---0---5---3---0---------------|
G#|--1---3---7---8---7---0---5---0---5---3---0---------------|
C#|----------7---8---7---0---5---0---5---3---0---------------|

Ed|----------------------------------------------------------|
Bd|--10-------11---8-----------------------------------------|
F#|---X--------X---X-----------------------------------------|
C#|---7-{7X}---8---5---7---8---7---0---5---0---5---3---0-----|
G#|--------------------7---8---7---0---5---0---5---3---0-----|
C#|--------------------7---8---7---0---5---0---5---3---0-----|

Ed|--1---1---0---3-------------------------------------------|
Bd|--1---1---2---3-------------------------------------------|
F#|--3---3---2---5---7---------------------------------------|
C#|--3---3---2---5---5---------------------------------------|
G#|--1---1---0---3---5---------------------------------------|
C#|------------------5---------------------------------------|

Play this riff in second verse after third riff:

Ed|----------------------------------------------------------|
Bd|----------------------------------------------------------|
F#|----------------------------------------------------------|
C#|----------------------------------------------------------|
G#|--8-7-5---------------------------------------------------|
C#|--------0-5-0---------------------------------------------|

Break:

Ed|----------------------------------------------------------|
Bd|----------------------------------------------------------|
F#|----------6---6/7---7---------8---8--X--X---7---8---8-----|
C#|--0---0---6---6/7---7---------6---6--X--X---5---6---6-----|
G#|--0---0---4---4/5---5-{12X}---6---6--X--X---5---6---6-----|
C#|--0---0-----------------------6---6--X--X---5---6---6-----|

Ed|----------------------------------------------------------|
Bd|----------------------------------------------------------|
F#|-X--X---7--10---------------------------------------------|
C#|-X--X---5---8---------------------------------------------|
G#|-X--X---5---8---------------------------------------------|
C#|-X--X---5---8-{9X)----------------------------------------|

Comments about this tab

Lover-o-Jesus - 2004-10-21

Wow, this is one of the greatest tabs I have ever seen! I absolutely love Blindside and other hard rock(Staple, EastWest, Zao Etc.) Thanks for doing such a great job. Keep it up!


Add a comment/correction

Complimentary Christian Ringtones
Dadamobile and CGR have teamed up to bring your favorite Christian artists right to your phone. Sign up today and get 10 complementary ringtones!
Tab Country
Did you know CGR has a sister site w/ country guitar tabs? Well we do! Its called Tab Country. It has a great archive with a lot of country tabs.
Rockin Tabs
Are you looking for a site that has rock guitar tabs? Then Rockintabs.com is the place for you. It is a budding site with many rock guitar tabs. Submit your tab today.
Tab Gallery
Tab Gallery has a compilation of christian, rock, and country tabs all in one place. Come visit us.