Guitar Tabs
song title    band name

Join Us Today!

Don't strum alone...
be a part of the largest online Christian music community. Browse thousands of guitar tabs and chat w/ musicians like yourself.


It's Free!

David Crowder Band, The - Our Love Is Loud

This tab has been rated a 1.00 out of 5 for accuracy. (2 votes)Sorry, but you must be logged in to rate this tab.
Click here to log-in, or you can click here to register.
(Registration is free)

All songs owned by corresponding publishing company. If you make copies of any song on this website, be sure to report your usage to CCLI.
Our Love Is Loud
The David Crowder Band

The Picking parts are all keyboards arranged for the guitar so just listen
to the song to get the rhythms


There are 2 guitar parts in this song
The top line is guitar 1 the bottom is guitar 2

Intro x 2
G1
e---------------------------------------------------------------------
B-75-75-75-75-97-97-9-10-97-75-75-75-75-54-54-54-54-------------------
G---------------------------------------------------------------------
D---------------------------------------------------------------------
A---------------------------------------------------------------------
E---------------------------------------------------------------------

e------------------------------------
B---------222222---------------------
G-1111111-222222-66666666--222222----
D-2222222-222222-66666666--222222----
A-2222222-000000-44444444--000000----
E-0000000-000000-00000000--000000----

Verse

e------------------------------------------------------------------------
B--4h5-4h5-4h5-4h5------------------4h5-4h5-4h5-4h5-4h5-4h5-4h5-4h5------
G------------------------------------------------------------------------
D------------------------------------------------------------------------
A------------------------------------------------------------------------
E------------------------------------------------------------------------

X2
e------------------------------------------------------
B-75-75-75-75-97-97-9-10-9-7-75-75-75-75-54-54-54-54---
G------------------------------------------------------
D------------------------------------------------------
A------------------------------------------------------
E------------------------------------------------------
( strum the chords below )  X2
e---------------------------------------------------------------------------
B-------------------------2-------------------------------------------------
G--1----------------------2-----------------------------6-----------------2-
D--2----------------------2-----------------------------6-----------------2-
A--2----------------------0-----------------------------4-----------------0-
E--0----------------------0-----------------------------0-----------------0-

Play the above parts after the chorus.

e--------------------------------------------------------------------------
B-4h5-4h5-4h5-4h5-4h5-4h5-4h5-4h5-4h5-4h5-4h5-4h5-4h5-4h5-4h5-4h5-4h5-4h5--
G--------------------------------------------------------------------------
D--------------------------------------------------------------------------
A--------------------------------------------------------------------------
E--------------------------------------------------------------------------

X2
e------------------------------------------------------
B-75-75-75-75-97-97-9-10-9-7-75-75-75-75-54-54-54-54---
G------------------------------------------------------
D------------------------------------------------------
A------------------------------------------------------
E------------------------------------------------------
( strum the chords below )  X2 Also durind bridge
e----------------------------------------------------------------------------
B-------------------------2--------------------------------------------------
G--1----------------------2-----------------------------6-----------------2--
D--2----------------------2-----------------------------6-----------------2--
A--2----------------------0-----------------------------4-----------------0--
E--0----------------------0-----------------------------0-----------------0--


Then he sings the chorus again.
Right before the 2nd time do this B--4h5-4h5-4h5-4h5

The play the bridge

Then the chorus a couple times and end on E

Thats all if you have any ?ís or comments email me at mansonstinks@aol.com

Play in christ

Comments about this tab

JoPop - 2005-08-24

heres an easier way to play this

instead of....
e------------------------------------
B---------222222---------------------
G-1111111-222222-66666666--222222----
D-2222222-222222-66666666--222222----
A-2222222-000000-44444444--000000----
E-0000000-000000-00000000--000000----

play this

e------------------------------------
B------------------------------------
G-9999999-444444-66666666--222222----
D-9999999-444444-66666666--222222----
A-7777777-222222-44444444--000000----
E-0000000-000000-00000000--000000----

ENJOY!


jkim519 - 2005-08-29

yo i don't think theres a fret bord with 97 frets!!!


Add a comment/correction

Complimentary Christian Ringtones
Dadamobile and CGR have teamed up to bring your favorite Christian artists right to your phone. Sign up today and get 10 complementary ringtones!
Tab Country
Did you know CGR has a sister site w/ country guitar tabs? Well we do! Its called Tab Country. It has a great archive with a lot of country tabs.
Rockin Tabs
Are you looking for a site that has rock guitar tabs? Then Rockintabs.com is the place for you. It is a budding site with many rock guitar tabs. Submit your tab today.
Tab Gallery
Tab Gallery has a compilation of christian, rock, and country tabs all in one place. Come visit us.