Guitar Tabs
song title    band name

Join Us Today!

Don't strum alone...
be a part of the largest online Christian music community. Browse thousands of guitar tabs and chat w/ musicians like yourself.


It's Free!

Smith, Michael W. - Worth It All

This tab has been rated a 0.00 out of 5 for accuracy. (1 vote)Sorry, but you must be logged in to rate this tab.
Click here to log-in, or you can click here to register.
(Registration is free)

All songs owned by corresponding publishing company. If you make copies of any song on this website, be sure to report your usage to CCLI.
Worth It All
Michael W. Smith
CD: This is Your Time
C1999 Milene Music
Tab: Steve Cruickshank
(postlambjam@hotmail.com)


Electric intro in Bb (not relative to capo)
e-----------------------------------------------------------
B----------------------11-10-10-11--------------------------
G-------10-----10------------------10---10------------------
D---8-8----8-8----8-8---8--8--8--8--8-8----8----------------
A-----------------------------------------------------------
E-----------------------------------------------------------


***The rest of the song is tabbed for a capo on the 1st fret


Intro: D A E F#m  D A C#sus C#


Verse:
F#m    E      A      D      E
F#m    E      A      D      E
F#m    E      A      D      E
F#m    E      A      D      E

e-------------0-0-------------------------------------------
B---3-3-3-3---0-0-----------3-3-3--2-3-2-3-2----------------
G---2-2-2-2---4-4---(x3)----2-2-2--2-2-2-2-2----------------
D---0-0-0-0---2-2-----------0-0-0--0-0-0-0-0----------------
A-----------------------------------------------------------
E-----------------------------------------------------------


Chorus:
D      A      E      F#m
D      A      E      F#m
D      A      E      F#m
D      A
C#sus  C#

Bridge: Bass plays stuff in F#m (actually Gm, without capo)

Comments about this tab

No comments/corrections found. Add your own

Complimentary Christian Ringtones
Dadamobile and CGR have teamed up to bring your favorite Christian artists right to your phone. Sign up today and get 10 complementary ringtones!
Tab Country
Did you know CGR has a sister site w/ country guitar tabs? Well we do! Its called Tab Country. It has a great archive with a lot of country tabs.
Rockin Tabs
Are you looking for a site that has rock guitar tabs? Then Rockintabs.com is the place for you. It is a budding site with many rock guitar tabs. Submit your tab today.
Tab Gallery
Tab Gallery has a compilation of christian, rock, and country tabs all in one place. Come visit us.