Guitar Tabs
song title    band name

Join Us Today!

Don't strum alone...
be a part of the largest online Christian music community. Browse thousands of guitar tabs and chat w/ musicians like yourself.


It's Free!

Jars of Clay - Weighed Down

This tab has been rated a 4.67 out of 5 for accuracy. (3 votes)Sorry, but you must be logged in to rate this tab.
Click here to log-in, or you can click here to register.
(Registration is free)

All songs owned by corresponding publishing company. If you make copies of any song on this website, be sure to report your usage to CCLI.
Author/Artist: Jars of Clay
Title: Weighed Down
Album: Much Afraid
Transcribed by: Brian Germer (Soul Detergent Music)
Email: BJG20773@ix.netcom.com
Important!!  The tuning for this song is EABEBE (Low to High).
For Lessons on the tuning visit: Jars of Christian Guitar Tabs.
http://www.geocities.com/SunsetStrip/Lounge/6098/index.htm

------------------------------------------------------------------------------
----------------------------------------------------0-------------------------
----------------------------------------------------0-------------------------
-------------------------------------------11-11-11-12-11-1111--12-12-12-10---
-11-11-11-9--9--9-9---11-11-11-9--9--9-9---9--9--9--9--9--9-9---0--0--0--0----
-9--9--9--9--9--9-9---0--0--0--0--0--0-0--------------------------------------
 Intro riff                                                                   
----------|------------0---0----9---------------------------------------------
----------|------9-----0---0----0----5-----10----3-----7----------------------
----------|------0-----0---7----9----0-----0-----0-----0----------------------
--10-1010-|------9-----0---0----0----5-----10----3-----7----------------------
--0--0-0--|------0-----2---7----9----0-----0-----0-----0----------------------
----------|------9-----0---0---------5-----10----3-----7----------------------
        Chords:  C#m   E  or   F#m   A     D     G     B                      


Intro:  2nd guitar part:  C#m     E     F#m     A

Verse 1: (with intro riff and 2nd guitar part)

Chorus: D  A  B  C#m
        D  A
            B

Verse 2: (like verse 1)

Chorus

Refrain:
D   E               G   A (4x)
	
Outro:  intro riff while Steve Mason plays an Ebow lead section

Words and music by Dan Haseltine, Matt Odmark, Steve Mason, Charlie Lowell
Copyright 1997 BridgeBuilding Music (BMI)/Pogostick Music (BMI).
All rights reserved.

Comments about this tab

BlackAttack1287 - 2005-08-23

I just listened to this song for the first time and I was shocked at how similar it was to 4:7 on their debut CD!

Nice Tab, by the way!


Seraph2 - 2006-11-08

The F#m is an F...


Add a comment/correction

Complimentary Christian Ringtones
Dadamobile and CGR have teamed up to bring your favorite Christian artists right to your phone. Sign up today and get 10 complementary ringtones!
Tab Country
Did you know CGR has a sister site w/ country guitar tabs? Well we do! Its called Tab Country. It has a great archive with a lot of country tabs.
Rockin Tabs
Are you looking for a site that has rock guitar tabs? Then Rockintabs.com is the place for you. It is a budding site with many rock guitar tabs. Submit your tab today.
Tab Gallery
Tab Gallery has a compilation of christian, rock, and country tabs all in one place. Come visit us.