Guitar Tabs
song title    band name

Join Us Today!

Don't strum alone...
be a part of the largest online Christian music community. Browse thousands of guitar tabs and chat w/ musicians like yourself.


It's Free!

Jars of Clay - Tea And Sympathy

This tab has been rated a 4.67 out of 5 for accuracy. (3 votes)Sorry, but you must be logged in to rate this tab.
Click here to log-in, or you can click here to register.
(Registration is free)

All songs owned by corresponding publishing company. If you make copies of any song on this website, be sure to report your usage to CCLI.
Tea and Sympathy 
Written by Jars of Clay for their album Much Afraid
Copyright 1997 BridgeBuilding Music (BMI)/
Pogostick Music (BMI). All rights reserved.
tabbed by Matthew Fehrmann (theguy@iag.net)

Comments:  Listen to the CD to figure out strumming and tab timing.
The tab and the chords that go along with it are correct, I know it, but if
you feel there are any errors, please email me at theguy@iag.net.

Verse 1:
G
F/G    C9     G    
F/G    C9     Em
A      Em     D      C9

G
F/G    C9     G
F/G    C9     Em
A
Em     D      C9

[Figure A]
e|-------0--------0------0--------------2------------------------------------|
B|-----3--------3------------2----------2------------------------------------|
G|---2--------2------------2------------0------------------------------------|
D|-0----------------------------------0--------------------------------------|
A|---------2---------4--------------2----------------------------------------|
E|--------------------------------3------------------------------------------|
******************************************************************************
[Figure B]
e|-------0--------0-----------------0----------------------------------------|
B|-----3--------3-----------1-------0----------------------------------------|
G|---2--------2-----------2---------0----------------------------------------|
D|-0--------------------2-----------2----------------------------------------|
A|---------2----------0-------------2----------------------------------------|
E|----------------------------------0----------------------------------------|
[Figure A for lead and listed chords for backup/rhythm parts]

D      Bm
F#m
G                           

[Figure B for lead and listed chords for backup/rhythm parts]
D      Bm
Am     Em

Verse 2:
A
G      D      A
G      F#m
B      F#m    E       

Chorus:

[Figure A for lead and listed chords for backup/rhythm parts]
D      Bm
F#m
G                           

[Figure B for lead and listed chords for backup/rhythm parts]
D      Bm
Am    
G

Interlude:

D   C9   Bb   C9
D   C9   Bb   Bb

Verse 3:
G
F/G    C9     G
F/G    C9     Em
A      Em     D      C9

[Chorus x 2]

D   C9   Bb   A

D   C9   Bb   A
D   C9   Bb   A

A   C9   C9   A9 A  

D

Written by Jars of Clay
Copyright 1997 BridgeBuilding Music (BMI)/
Pogostick Music (BMI). All rights reserved.

Comments about this tab

JasonD - 2005-01-11

great tab man!


newsgirl14 - 2005-01-13

The "A" in the first, second, and fourth verses should actually be an "A7". And in the third verse, try a "B7" instead of a "B". Thanx!


Add a comment/correction

Complimentary Christian Ringtones
Dadamobile and CGR have teamed up to bring your favorite Christian artists right to your phone. Sign up today and get 10 complementary ringtones!
Tab Country
Did you know CGR has a sister site w/ country guitar tabs? Well we do! Its called Tab Country. It has a great archive with a lot of country tabs.
Rockin Tabs
Are you looking for a site that has rock guitar tabs? Then Rockintabs.com is the place for you. It is a budding site with many rock guitar tabs. Submit your tab today.
Tab Gallery
Tab Gallery has a compilation of christian, rock, and country tabs all in one place. Come visit us.